Green Day - Pulling Teeth Chords & Tabs

 

Pulling Teeth Chords & Tabs

Green Day Chords & Tabs

Version: 1 Type: Bass Tab 0 ratings
1 star 2 stars 3 stars 4 stars 5 stars
comments

Pulling Teeth Bass Tab

Song: Pulling Teeth
Artist: Green Day
Album: Dookie

The old tab I typed was wrong in the verse; this tab is correct. I also correct the fill in the verse.

Intro				    X3
Gb------------------------------------|-------------------------------
Db------4-------4--------2------2-----|------4------4-----------------
Ab--2-2-----2-2---2--0-0----0-0----0--|--2-2----2-2---2--2-2-2-2-2-2--
Eb------------------------------------|-------------------------------

Verse/Outro
Gb---------------------------------------------------------------
Db----------------------------------------------------4--2-------
Ab--------------0-0-0-0-0-0--------------2-2-2-2-2-2-------4--2--
Eb--0-0-0-0-0-0--------------0-0-0-0-0-0-------------------------
(Let the last note ring...)
Gb----------------------------------------------------------------
Db----------------------------------------------------------------
Ab--------------0-0-0-0-0-0---------------2-2-2-2-2-2-------------
Eb--0-0-0-0-0-0--------------0-0-0-0-0-0-------------0-0-0-0-0-0--

Chorus
Gb-----------------------------------------------
Db-----------------------------------4--2--------
Ab--4-4-4-4-4-4-4-4-2-2-2-2-2-2-2-2--------4--2--
Eb-----------------------------------------------
[ Tab from: http://www.guitartabs.cc/tabs/g/green_day/pulling_teeth_btab.html ]
Gb---------------------------------------------
Db---------------------------------------------
Ab--4-4-4-4-4-4-4-4-2-2-2-2-2-2-2-2-2-2-2-2-2--
Eb---------------------------------------------

Chorus into Bridge
Gb-----------------------------------------------
Db-----------------------------------4--2--------
Ab--4-4-4-4-4-4-4-4-2-2-2-2-2-2-2-2--------4--2--
Eb-----------------------------------------------

Gb---------------------------------
Db---------------------------------
Ab--4-4-4-4-4-4-4-4-2-2-2-2-2-2-2--
Eb---------------------------------
				      X3
Gb--------------------------------------|---------------------------------------------------
Db------2--------2--------4--------4----|------2--------2--------4--------4-----------------
Ab--0-0---0--0-0---0--2-2---2--2-2---2--|--0-0---0--0-0---0--2-2---2--2-2---2--2-2-2-2-2-2--
Eb--------------------------------------|---------------------------------------------------

Intro X1
Verse X2
Chorus X1
Verse X2
Chorus into Bridge X1
Outro X1


This tab was created by Christian Mangs. If your trying to reach me through my email,
right now I'm not accessing my email because of all the dam spam-mail. From now on, 
email me at: Bassman9@users.basstabarchive.com 

I will not answer any emails to my old address anymore so make sure you email me there. 
Sorry to anyone to whom I did not reply to.

Comments