Green Day - Prosthetic Head Chords & Tabs

 

Prosthetic Head Chords & Tabs

Green Day Chords & Tabs

Version: 3 Type: Tab 8 ratings
1 star 2 stars 3 stars 4 stars 5 stars
comments

Prosthetic Head Tab

I tabbed this by ear and am hoping it is acurate.Please Rate!


Verse/Chorus
|------------------------------|
|------------------------------|
|-9-9------------7-7-----------|
|-9-9---9-9-9-9--7-7---7-7-7-7-|
|-7-7---9-9-9-9--5-5---7-7-7-7-|
|-------7-7-7-7--------5-5-5-5-|

Pre-chorus

|-----------------------------|
|-----------------------------|
|---------------------------7-|
|-9-9-9-9-9-9-9-9-9-9-9-9-9-7-|
|-9-9-9-9-9-9-9-9-9-9-9-9-9-5-|
|-7-7-7-7-7-7-7-7-7-7-7-7-7---|


Bridge
[ Tab from: http://www.guitartabs.cc/tabs/g/green_day/prosthetic_head_tab_ver_3.html ]
|------------------------------------------------------------|
|------------------------------------------------------------|
|------9-9--------------------------------7-7----------------|
|-9----9-9-----7-7--4-4-----9-9----7-7----7-7----7-7-7-7-7-7-|
|-9----7-7-----7-7--4-4-----9-9----7-7----5-5----7-7-7-7-7-7-|
|-7------------5-5--2-2-----7-7----5-5-----------5-5-5-5-5-5-|

|---------------------------------|
|---------------------------------|
|---------------------------------|
|-9-9-9-9-9-9-9-9-9-9-9-9-9-9-9-9-|
|-9-9-9-9-9-9-9-9-9-9-9-9-9-9-9-9-|
|-7-7-7-7-7-7-7-7-7-7-7-7-7-7-7-7-|

Order:
Verse w/o distortion
Pre-chorus w/ distortion
Chorus w/ distortion
Verse w/o distortion
Pre-chorus w/ distortion
Chorus w/ distortion
Bridge w/ distortion
Verse w/o distortion
Then do a slide from bridge to head.
Chorus w/ distortion

Comments