Green Day - Prosthetic Head Chords & Tabs

 

Prosthetic Head Chords & Tabs

Green Day Chords & Tabs

Version: 3 Type: Bass Tab 0 ratings
1 star 2 stars 3 stars 4 stars 5 stars
comments

Prosthetic Head Bass Tab

Green Day
guitarist plays guitar part 1.5x 
[ Tab from: http://www.guitartabs.cc/tabs/g/green_day/prosthetic_head_btab_ver_3.html ]
verse 
-------------------------------------------------- 
-------------------------------------------------- 
-7-7-x--------7--5-5-x-------5------------------- 
-------7-7-7-----------5-5-5--------------------- 
x8 
  
pre-chorus 
-------------------------------------------------- 
-----------------------------------------7-7-7--- 
6-7-7-7-7-7-7-7-7-7-7-7-7-7-7-7-7-7-7---------- 
-------------------------------------------------- 
x3 
  
pre-chorus 2 
---------------------------------------------------------- 
---------------------------------------------------------- 
6-7-7-7-7-7-7-7-7-7-7-7-7-7-7-7-7-7-7-7-7-7-7-7-7-7-7- 
---------------------------------------------------------- 
  
  
chorus 
-------------------------------------------------- 
-------------------------------------------------- 
5-5-x-------5--3-3-x-------3--------------------- 
------5-5-5----------3-3-3----------------------- 
x4 
  
play verse x8 
  
play pre-chorus x3 
  
play pre-chorus 2 
  
play chorus x8 
  
bridge 
------------------------------------------------------ 
-----5-7-7-------------------6-----4-5-5-4----------- 
-7-x-------4-5-5-4-2-5-5-7-x--5-5----------5-5-5-6-- 
------------------------------------------------------ 
x3 
  
bridge 2 
------------------------------------------------------------------------------------- 
----5-7-7-------------------6-----4-5-5-4------------------------------------------- 
7-x-------4-5-5-4-2-5-5-7-x--5-5---------5-5-5-6-7-7-7-7-7-7-7-7-7-7-7-7-7-7-7-7- 
------------------------------------------------------------------------------------- 
  
wait 11 measures 
  
------------------------------------------------------------- 
------------------------------------------------------------- 
------------------------------------------------------------- 
-pick slide\-------------------------------------------------- 
  
play chorus 7.5x 
  
---------------- 
---------------- 
-3-3-x-------3\- 
-------3-3-3---- 
  
basketcaze88@hotmail.com 
Comments