Green Day - Peacemaker Chords & Tabs

 

Peacemaker Chords & Tabs

Green Day Chords & Tabs

Version: 8 Type: Bass Tab 0 ratings
1 star 2 stars 3 stars 4 stars 5 stars
comments

Peacemaker Bass Tab

-------------------------------------------------------------------------------
			     Peacemaker - Green Day
-------------------------------------------------------------------------------

Tabbed By : Beato413 
Tuning: Standard
Rate Please!

Intro: (Bass comes in at 0:13)
G|---------------------------------|
D|---------------------------------|
A|2-2---0222--0-2-2---0222---0-----|
E|---02-----02-----02-----02-------|

Verse: (0:17)
G|----------------------------------------------|
D|----------------------------------------------|
A|2-2---0222---0222---0222---0222---0222---0----|
E|---02-----02-----02-----02-----02-----02------|

Verse:(0:25)
G|----------------------------------------------------------------|
D|----------------------------------------------------------------|
A|----------------------------------------------------------------|
E|222222222222222222222222222222222222222222222222222222222222----|

Verse:(0:34)
G|------------------------------------------------------------|
D|------------------------------------------------------------|
A|2-2---0222---0222---0222---0222---0222---0222---0222---0----|
E|---02-----02-----02-----02-----02-----02-----02-----02------|

Verse:(0:44)
G|-----------------------------------------------------------------------------|
D|-----------------------------------------------------------------------------|
A|------------------------------------------------------------2-2---0-2-2---0--|
E|222222222222222222222222222222222222222222222222222222222222---02------02----|

Chorus:(0:56)
G|----------------------------------------------------------------|
D|----------------------------------------------------------------|
A|------------------------------222222222222222222222222222222----|
E|222222222222222222222222222222----------------------------------|

G|----------------------------------------------------------------|
D|----------------------------------------------------------------|
A|777777777777777222222222222222----------------------------------|
E|------------------------------222222222222222222222222222222----|

Verse:(1:15)
G|----------------------------------------------|
D|----------------------------------------------|
A|2-2---0222---0222---0222---0222---0222---0----|
E|---02-----02-----02-----02-----02-----02------|
[ Tab from: http://www.guitartabs.cc/tabs/g/green_day/peacemaker_btab_ver_8.html ]
Verse:(1:23)
G|----------------------------------------------------------------|
D|----------------------------------------------------------------|
A|----------------------------------------------------------------|
E|222222222222222222222222222222222222222222222222222222222222----|

Verse:(1:32)
G|------------------------------------------------------------|
D|------------------------------------------------------------|
A|2-2---0222---0222---0222---0222---0222---0222---0222---0----|
E|---02-----02-----02-----02-----02-----02-----02-----02------|

Verse:(1:42)
G|-----------------------------------------------------------------------------|
D|-----------------------------------------------------------------------------|
A|------------------------------------------------------------2-2---0-2-2---0--|
E|222222222222222222222222222222222222222222222222222222222222---02------02----|

Chorus:(1:54)
G|----------------------------------------------------------------|
D|----------------------------------------------------------------|
A|------------------------------222222222222222222222222222222----|
E|222222222222222222222222222222----------------------------------|

G|----------------------------------------------------------------|
D|----------------------------------------------------------------|
A|777777777777777222222222222222----------------------------------|
E|------------------------------222222222222222222222222222222----|

Solo: (2:16)
G|----------------------------------------------------------------|
D|----------------------------------------------------------------|
A|------------------------------222222222222222222222222222222----|
E|222222222222222222222222222222----------------------------------|

G|----------------------------------------------------------------|
D|----------------------------------------------------------------|
A|777777777777777222222222222222----------------------------------|
E|------------------------------222222222222222222222222222222----|

Verse: (2:35) 
G|----------------------------------------------|
D|----------------------------------------------|
A|2-2---0222---0222---0222---0222---0222---0----|
E|---02-----02-----02-----02-----02-----02------|

Verse: (2:42)
G|-----------------------------------------------------------------------------|
D|-----------------------------------------------------------------------------|
A|------------------------------------------------------------2-2---0-2-2---0--|
E|222222222222222222222222222222222222222222222222222222222222---02------02----|

Outro 1: (2:54)
G|---------------------------------|
D|---------------------------------| X2
A|---------------2-2---0-2-2--0----|
E|222222222222222---02------02-----|

Outro 2: (3:12)
G|----------------------------|
D|----------------------------|
A|2-2--0-2-2--0-2-2---2-2~----|
E|---02-----02-----02---------|
Comments