Green Day - Paper Lanterns Chords & Tabs

 

Paper Lanterns Chords & Tabs

Green Day Chords & Tabs

Version: 3 Type: Tab 0 ratings
1 star 2 stars 3 stars 4 stars 5 stars
comments

Paper Lanterns Tab

   
green day
paper lanterns
slappy EP
tune whole step down

opening:
|------------------------|
|------------------------|
|-----------9-9----------|
|-9-x-7-7-x-9-9-9-9-9-9--|
|-9-x-7-7-x-7-7-9-9-9-9--|
|-7-x-5-5-x-----7-7-7-7--|x4

B5            F#5                E5             B5  
Now I rest my head from such and endless dreary time, A 

                A5             E5            E5  
time of hopes a happiness that had you on my mind, Those 

                  F#5             E5               B5
days are gone and now it seems as if I'll get some rest, 

                      A5                     E5
but now and then I'll see you again and it puts my heart to 

    B5       E5              F#5                  B5
the test, So when are all my troubles going to end, I'm 
[ Tab from: http://www.guitartabs.cc/tabs/g/green_day/paper_lanterns_tab_ver_3.html ]
E5            F#5             B5   G#5              A5  
understanding now that we are only friends, to this day I'm 

          E5
asking why I still think about you

opening x2

verse (differnt lyrics

chorus

opening x2

solo:
|--------------------7--------------------------------10-
|------------------7-------------------------------------
|-7-7-----7---7-9b-----9b-x-9b-7-x-9p7---7---7-9p7-9b----
|-----7-9---x--------------------------9---9-------------
|--------------------------------------------------------
|--------------------------------------------------------
   |-PM|

--------------------------------------------------\------|
---------------------------------------------------\-----|
-7h9-7-7-7-7----------------------------------------\----|
-----9-9---9-9-7-9-7-9p7---7-7-9p7---7----------9----\---|
-------------------------9---------9---9-8-7----------\--|
---------------------------------------------10--------\-|
          |----PM---|                             pck sld

Chorus

Opening x4

End on:
|---|
|---|
|---|
|-9-|
|-9-|
|-7-|
Comments