Green Day - Paper Lanterns Chords & Tabs

 

Paper Lanterns Chords & Tabs

Green Day Chords & Tabs

Version: 1 Type: Bass Tab 1 rating
1 star 2 stars 3 stars 4 stars 5 stars
comments

Paper Lanterns Bass Tab

   
Artist:  Green Day
Title:  Paper Lanters
Tabbed By:  Greg

I Know There's Already A Tab Of This Song...But Check This One Out.

Standard Tuning (E,A,D,G)

Intro(The Bass Won't Start Until About 0:09):

G|---------------
D|---------------
A|-------5-5-4-0-   Play The Intro Twice..Just Follow The Guitar
E|-5-3-3---------


Verse: 

G|------------------------------------
D|------------------------------------
A|------------------------------------
E|-5-5-5-5--3-3-3-3--2-2-2-2--1-1-1-1-

Verse(Cont'D):
[ Tab from: http://www.guitartabs.cc/tabs/g/green_day/paper_lanterns_btab.html ]
G|-----------------------------------
D|-----------------------------------  You Wanna Play The Verse Twice
A|-------------------5-5-5-5---------
E|-5-5-5-5--3-3-3-3-----------5-5-5-5

Verse Moderation:

G|-----------------------------------
D|-----------------------------------
A|-0-0-0-0---------------------------
E|----------3-3-3-3--2-2-2-2--1-1-1-1

Verse Moderation (Cont'D):

G|------------------------------------
D|------------------------------------
A|-0-0-0-0------------5-5-5-5--0-0-0-0
E|-----------3-3-3-3------------------
Chorus:

G|-------------------------------
D|--------2-2-2-2----------------
A|-5-5-5-----------0-0-0-0-0-5-0-
E|-------------------------------

Chorus(Cont'D):

G|----------------------
D|--------2-2-2-2-------
A|-5-5-5-------------5--
E|-----------------3---5
Comments