Green Day - Panic Song Chords & Tabs

 

Panic Song Chords & Tabs

Green Day Chords & Tabs

Version: 3 Type: Bass Tab 0 ratings
1 star 2 stars 3 stars 4 stars 5 stars
comments

Panic Song Bass Tab

Very Easy to remember, but you have to go really fast on the intro.
Standard Tuning (EADG)
Intro:
G------------------------------------|
D------------------------------------|
A-888888888888888888888888888888888--|
E------------------------------------|
 do this till drums only (1:50)

Cont.
G--------------------------------|
D--------------------------------|
A-88xxxx88xxxx88xxxx88-----------| xxxx = palm mute
E--------------------------------|

G------------------------------------------|
D------------------------------------------|
A------------------------------------------|
E-4-4-4-4-4-4-4-4-4-4-2-2-2-2-2-2-2-2-2-2--|
[ Tab from: http://www.guitartabs.cc/tabs/g/green_day/panic_song_btab_ver_3.html ]
Verse
G-------------------------------------------------------------|
D-------------------------------------------------------------|
A-2-2-2-2-2-2-2-2-2-2-2---------------------------------------|
E-----------------------4-4-4-4-4-4-4-4-4-2-2-2-2-2-2-2-2-2-2-|

Chorus
G--------------------------------------------------------------------|
D---------------------------------2-2-2-2----------------------------|
A---------2-2-2-2---------2-2-2-2---------2-2-2-2--------------------|
E-2-2-2-2---------2-2-2-2-------------------------2-2-2-2-0-0-0-0----|

Outro (i wanna jump out...)
G------------------------------------|------------------------------------|
D------------------------------------|------------------------------------|
A-2-2-2-2-2-2-2-0-0-0-0-0-0----------|-2-2-2-2-2-2-2-0-0-0-0-0-0----------|
E--------------------------2-2-2-2-2-|--------------------------2-2-2-2-2-|

See? told you it was easy..it's best to use a pick if you want to make good
progress in the intro...anyways please rate and i know this is correct...or
close to it. enjoy!
Comments