Green Day - Panic Song Chords & Tabs

 

Panic Song Chords & Tabs

Green Day Chords & Tabs

Version: 1 Type: Bass Tab 0 ratings
1 star 2 stars 3 stars 4 stars 5 stars
comments

Panic Song Bass Tab

Song: Panic Song
Artist: Green Day
Album: Insomniac


Intro (Play this over and over nonstop until it goes to drums only...)
Gb-----------------------------------------
Db--9-9-9-9-9-9-9-9-9-9-9-9-9-9-9-9-9-9-9--
Ab-----------------------------------------
Eb-----------------------------------------

Then play this....
       X4
Gb-------|-----------------------
Db--9-9--|-----------------------
Ab-------|-----------------------
Eb-------|--4-4-4-4-4-2-2-2-2-2--

Verse
Gb---------------------------------------
Db---------------------------------------
Ab--2-2-2-2-2-2-2-2----------------------
Eb------------------4-4-4-4-4-2-2-2-2-2--
[ Tab from: http://www.guitartabs.cc/tabs/g/green_day/panic_song_btab.html ]
Chorus (Missed a part of the chorus last time...)
Gb-------------------------------------------------------------
Db----------------------------------2-2-2-2--------------------
Ab----------2-2-2-2---------2-2-2-2---------2-2-2-2-0-0-0-0----
Eb--0-0-0-0---------2-2-2-2---------------------------------2--

Outro				       X3 (Let the last note ring...)
Gb---------------------------------------|-----------------------------
Db---------------------------------------|-----------------------------
Ab--2-2-2-2-2-2-0-0-0-0-0-0--------------|--2-2-2-2-2-2-0-0-0-0-0-0----
Eb--------------------------2-2-2-2-2-2--|--------------------------2--


Intro X1
Verse X1
Chorus X1
Verse X2
Chorus X1
Outro X1

This tab was created by Christian Mangs. Email me at:
-/-/-/-/-/-/-

Comments