Green Day - Only Of You Chords & Tabs

 

Only Of You Chords & Tabs

Green Day Chords & Tabs

Version: 2 Type: Tab 0 ratings
1 star 2 stars 3 stars 4 stars 5 stars
comments

Only Of You Tab

   
 This is a great song off 1039/Smoothed Out Slappy Hours.
The timing in parts can be a little tricky, but can be 
made easier by playing in drop D. Oh yeah, and can anyone
get me the solo for The Judge's Daughter? I've wanted that
for ages. Anyway, away we go... 

 Intro
|-------------------------|
|-----3-------------------|
|---2-2--4--4-4-4-4-4-4-4-|
|-4-2-0--4--4-4-4-4-4-4-4-|
|-4-0----2--2-2-2-2-2-2-2-|
|-2-----------------------|
[ Tab from: http://www.guitartabs.cc/tabs/g/green_day/only_of_you_tab_ver_2.html ]
 Verse
|-------------------------------------|
|-------------------3-3-333-5-55-5555-|
|-2-2-222-4-44-4444-2-2-222-4-44-4444-|
|-2-2-222-4-44-4444-0-0-000-2-22-2222-|
|-0-0-000-2-22-2222-------------------|
|-------------------------------------|

 Bridge
|------------------------------------|
|------------------------------------|
|-4-44-444-2-22-222------------------|
|-4-44-444-2-22-222-4-2-4-2-44-2-4-2-|
|-2-22-222-0-00-000-4-2-4-2-44-2-4-2-|
|-------------------2-0-2-0-22-0-2-0-|

 Solo
 For the solo, go here. This guy is a genius, 
and without him I wouldn't know the solo
anyway.

 Just paste that into your browser.
 A D5 plays throughout the solo, I think it might carry
on 'till the end too.

Order
Intro x 4
Verse x 6
Intro x 4
Verse x 6
Intro x 4
Bridge x 4
Solo (over D5)
Verse x 6
End on A5

And that's it. Special thanks to Sigbjorn. Any comments
etc. can go to Natfish011@aol.com
Comments