Green Day - One Of My Lies Chords & Tabs

 

One Of My Lies Chords & Tabs

Green Day Chords & Tabs

Version: 1 Type: Tab 0 ratings
1 star 2 stars 3 stars 4 stars 5 stars
comments

One Of My Lies Tab

   
Tabbed By: Chris
Band:Green Day
Song:One of My Lies
Album:Kerplunk (1992 Reprise Records)
Guitar:Billie Joe Armstrong

Key:
x-mute
Pm-Palm-mute

Note:The first mute is played so it can bearly be heard. Here it is...

Intro:

        D5       A5  G5 G#5 G5  G#5 A5
e-----------------------------------------|
b-----------------------------------------|
g---x-7-7-7-7-----------------------------|(x2. 2nd time without mute)
D---x-7-7-7-7-7-7-7-7-5--44-555-4-4-7-7---|
A---x-5-5-5-5-7-7-7-7-5--44-555-4-4-7-7---|
E-------------5-5-5-5-3--22-333-2-2-5-5---|

Verse:

    D5      A5      C#5    G#5    G5       D5          A5
e-----------------------------------------------------------------|
b-----------------------------------------------------------------|
g-7-7-7-7---------4-4-4-4-----------------7-7-7-7-----------------|
D-7-7-7-7-7-7-7-7-4-4-4-4-4-4-4-4-5-5-5-5-7-7-7-7-7-7-7-7-7-7-7-7-|(x2)
A-5-5-5-5-7-7-7-7-2-2-2-2-4-4-4-4-5-5-5-5-5-5-5-5-7-7-7-7-7-7-7-7-|
E---------5-5-5-5---------2-2-2-2-3-3-3-3---------5-5-5-5-5-5-5-5-|

Pre-chorus:

     G5       A5      G5      A5
e-------------------------------------|
b-------------------------------------|
g-------------------------------------|
D---5-5-5-5-7-7-7-7-5-5-5-5-7-7-7-7---|(x2) then...
A---5-5-5-5-7-7-7-7-5-5-5-5-7-7-7-7---|"'cause it's just one of my lies"
E---3-3-3-3-5-5-5-5-3-3-3-3-5-5-5-5---|

Chorus:

      D5   E5  A5        D5   E5   A5
e------------------------------------------|
b------------------------------------------|
g---7-7-7-7-9----------7-7-7-7-9-----------|
D---7-7-7-7-7-7-7-7-7--7-7-7-7-9-7-7-7-7---|(x2)
A---5-5-5-5-7-7-7-7-7--5-5-5-5-7-7-7-7-7---|
E-------------5-5-5-5------------5-5-5-5---|

Verse x2

Pre-chorus x2

Chorus x2

Interlude:
[ Tab from: http://www.guitartabs.cc/tabs/g/green_day/one_of_my_lies_tab.html ]
       G5      A5
e----------------------|
b----------------------|
g----------------------|
D---55-5-5-5-7-7-7-7---|(x4)
A---55-5-5-5-7-7-7-7---|
E---55-5-5-5-5-5-5-5---|

Chorus x4 without words

Intro x2 Pm

Outro:

e-----------0----------0---------------------|
b---------------------0-0--------------------|
g---7-7-7-7----------------------------------|
D---7-7-7-7---7-7-7-7-----5--44-555-4-4-7-7--|
A---5-5-5-5---7-7-7-7-----5--44-555-4-4-7-7--|
E-------------5-5-5-5-----3--22-333-2-2-5-5--|
Pm---------|  |------|    |------------------|

Intro/Outro x1 Pm

End on D5.

That's it! Have fun playing it!
===========Green Day - One Of My Lies
Tabbed By: megan
EMail: megs07027@yahoo.com
Album: 1039/Smoothed Out Slappy Hours (1990 Lookout Records)

I think it might be tuned a half step down but it sounds fine if 
you play it in regular tuning


INTRO:
e----------------------------------------
B----------------------------------------
G--x--7-7-7-7----------------------------
D--x--7-7-7-7--7-7-7-7--5-4-4-5-5-5-4-7--
A--x--5-5-5-5--7-7-7-7--5-4-4-5-5-5-4-7--
E--------------5-5-5-5--3-2-2-3-3-3-2-5--

VERSES:
e-----------------------------------------------
B-----------------------------------------------
G--7-7-7-7-----------4-4-4-4--------------------
D--7-7-7-7--7-7-7-7--4-4-4-4--4-4-4-4--5-5-5-5--
A--5-5-5-5--7-7-7-7--2-2-2-2--4-4-4-4--5-5-5-5--
E-----------5-5-5-5-----------2-2-2-2--3-3-3-3--

PRE-CHORUS:            INTERLUDE (palm mute)  
e--------------------  e--------------
B--------------------  B--------------
G--------------------  G--------------
D--5-5-5-5--7-7-7-7--  D--5-5-5-5--7-- 
A--5-5-5-5--7-7-7-7--  A--5-5-5-5--7--
E--3-3-3-3--5-5-5-5--  E--3-3-3-3--5--

CHORUS:
e-----------------------
B-----------------------
G--7-7-7-7--------------
D--7-7-7-7--9--7-7-7-7--
A--5-5-5-5--9--7-7-7-7--
E--------------5-5-5-5--


Song Structure:
Intro x2
Verse x2
Pre-Chorus x4
Chorus x4
Verse x2
PRE-CHORUS x4
Chorus x4
Interlude x4
Chorus x4
Intro x5 (palm mute, strike th ehigh e and B strings randomly to get 
those high notes you hear)

I didn't really put in the timing right, but it's easy to figure out
by listening to it. Email me if you have questions or if I'm wrong but 
I'm pretty sure that this is all right.
Comments