Green Day - No Pride Chords & Tabs

 

No Pride Chords & Tabs

Green Day Chords & Tabs

Version: 5 Type: Tab 0 ratings
1 star 2 stars 3 stars 4 stars 5 stars
comments

No Pride Tab

   
Tabbed by:Sam champness
Email:
Song: No Pride
Tuning: Half step down

Intro:(x as needed)
e|--------------------------------------------------|
B|--------------------------------------------------|
G|-----8-8-8--6-6-6-6-6-6-------8-8-8--6-6-6-6-6-6--|
D|6-6--8-8-8--6-6-6-6-6-6--6-6--8-8-8--6-6-6-6-6-6--|
A|6-6--6-6-6--4-4-4-4-4-4--6-6--6-6-6--4-4-4-4-4-4--|
E|4-4----------------------4-4----------------------|

Verse:(x as needed)
e|-------------------------------------|
B|-------------------------------------|
G|-------8-8-8-8--6-6-6-6--------------|
D|6-6-6--8-8-8-8--6-6-6-6--6-6-6-6-6---|
A|6-6-6--6-6-6-6--4-4-4-4--6-6-6-6-6---|
E|4-4-4--------------------4-4-4-4-4---|
[ Tab from: http://www.guitartabs.cc/tabs/g/green_day/no_pride_tab_ver_5.html ]
Chorus:
e|------------------------------|-----------------------------------------|
B|------------------------------|-----------------------------------------|
G|8888888--666-------8888888----|--------5555--6666--99999--------88888---|
D|8888888--666--666--8888888----|--6666--5555--6666--99999--------88888---|
A|6666666--444--666--6666666----|--6666--3333--4444--77777--6666--66666---|
E|--------------444----------X2-|--4444---------------------4444----------|

Pre-Verse:(Before 2nd Verse)
e|--------------------------------------------------|
B|--------------------------------------------------|
G|-----8-8-8--6-6-6-6-6-6-------8-8-8--6-6-6-6-6-6--|                       
D|6-6--8-8-8--6-6-6-6-6-6--6-6--8-8-8--6-6-6-6-6-6--|
A|6-6--6-6-6--4-4-4-4-4-4--6-6--6-6-6--4-4-4-4-4-4--|
E|4-4----------------------4-4----------------------|

Bridge:PLAY AS NEEDED        Ending: PLAY AS NEEDED
e|-----------------------|-->|---------------------------|
B|-----------------------|-->|---------------------------|
G|-----8-8-8--6-6-6-6-6--|-->|-------8-8-8--6-6-6-6-6-6--|
D|6-6--8-8-8--6-6-6-6-6--|-->|--6-6--8-8-8--6-6-6-6-6-6--|
A|6-6--6-6-6--4-4-4-4-4--|-->|--6-6--6-6-6--4-4-4-4-4-4--|
E|4-4--------------------|-->|--4-4----------------------|

| /  slide up
| \  slide down
| h  hammer-on
| p  pull-off
| ~  vibrato
| +  harmonic
| x  Mute note
============================================================================
Comments