Green Day - No Pride Chords & Tabs

 

No Pride Chords & Tabs

Green Day Chords & Tabs

Version: 4 Type: Tab 0 ratings
1 star 2 stars 3 stars 4 stars 5 stars
comments

No Pride Tab

Tablatura de NICO. M (nicokbbl@hotmail.com)

Artista: Green Day
Cancion: No Pride
Album: Insomiac (1995)

INTRO
1|-------------------------------------------------------|
2|-------------------------------------------------------|
3|------8-8-6-6--6-6-6-6---------------------------------| x4
4|--5-5-8-8-6-6--6-6-6-6---------------------------------|
5|--5-5-6-6-4-4--4-4-4-4---------------------------------|
6|--3-3--------------------------------------------------|
[ Tab from: http://www.guitartabs.cc/tabs/g/green_day/no_pride_tab_ver_4.html ]
SEGUNDA PARTE
1|-------------------------------------------------------|
2|-------------------------------------------------------|
3|------------------6-6-6-6------------------------------| x4
4|--5-5-5-5-7-7-7-7-6-6-6-6-8-8-8-8----------------------|
5|--5-5-5-5-7-7-7-7-4-4-4-4-8-8-8-8----------------------|
6|--3-3-3-3-5-5-5-5---------6-6-6-6----------------------|

TERCERA PARTE
1|-------------------------------------------------------|
2|-------------------------------------------------------|
3|---------------------9-0x-7-0x-5-----------------------| x4
4|--7-7-7-7-7-7-7-7-7--9-0x-7-0x-5-----------------------|
5|--7-7-7-7-7-7-7-7-7--7 0x-5-0x-3-----------------------|
6|--5-5-5-5-5-5-5-5-5------------------------------------|

REPETIR SEGUNDA PARTE
Comments