Green Day - No Pride Chords & Tabs

 

No Pride Chords & Tabs

Green Day Chords & Tabs

Version: 3 Type: Tab 0 ratings
1 star 2 stars 3 stars 4 stars 5 stars
comments

No Pride Tab

NOBODY HAS TABBED THIS SONG RIGHT!!!  I figured this song out without ever
looking at any tabs, and when I did finally look at them, they were all wrong!
Here's the correct way to tab it.

SONG:  No Pride
AUTHOR:  Green Day
CD:  Insomnia
Tabber:  Greenfinger182

INTRO:  It goes just like this:


---------------------------------
---------------------------------
---------777------555555---------
--55-----777------555555---------X4
--55-----555------333333---------
--33-----------------------------


VERSE:  Close to intro, but not quite the same.


------------------------------------------------------------------------
------------------------------------------------------------------------
----------------77777777----55555555------------------------------------
----55555555----77777777----55555555------555555------------------------X4
----55555555----55555555----33333333------555555------------------------
----33333333------------------------------333333------------------------
Well I am just a mutt and nowhere is my home
Where dignity's a landmine in the school of lost hope
I'm panhandled for life because I'm not afraid to beg
Hand me down your lost and founds and second hand regrets

Pre-chorus:  This is what everyone is getting wrong!!! When he sings "Choke
on it", you play one chord for each one.  On "choke" you play a "C". "On", you play
a "G", and on "it" you play an "A".  Same with "turn to sh*t".  Just look at the tab


------------------------------------------------------------------------
------------------------------------------------------------------------
----------------------------------------------5-------------------------
-2222222222222222222222222222222222222222222--5----5--7-----777777------
-2222222222222222222222222222222222222222222--3----5--7-----777777------
-0000000000000000000000000000000000000000000-------3--5-----555555------
You better swallow your pride now before you choke on it
You better digest your values before they turn to sh*t
[ Tab from: http://www.guitartabs.cc/tabs/g/green_day/no_pride_tab_ver_3.html ]
Chorus:  You guys got this wrong too!!!  Here's how it goes:


------------------------------------------------------------------------
------------------------------------------------------------------------
----------------------777777----------555555----------------------------
--------555555--------777777----------555555--------------222222--------
--------555555--------555555----------333333--------------222222--------
--------333333--------------------------------------------000000--------
Honors gonna knock you down before you have a chance to stand and fight now

------------------------------------------------------------------------
------------------------------------------------------------------------
--------555555------------7---------------------------------------------
--------555555------------7---------------------------------------------
--------333333------------5---------------------------------------------
------------------------------------------------------------------------
You know I'm not the one(strum & stop music completely) I got no pride.

Go directly into the next verse.

2nd verse: Same as first.

2nd pre-chorus: Same as first

2nd chorus: Same as first.

Right after the second chorus, play the intro eight times.
Then play the pre-chorus and chorus again.  Then do this:

------------------------------------------------------------------------
------------------------------------------------------------------------
---------777-------55555555---------------------------------------------
---55----777-------55555555---------------------------------------------
---55----555-------33333333---------------------------------------------
---33-------------------------------------------------------------------
                I got no pride
                I got no pride
                Close your eyes and die
                I got no pride

Then end on:

-----------
-----------
-----------
----5------
----5------
----3------

That is 100% correct.  Now you know how to correctly tab this song.
Check out my "Forgiveness" tab by Goldfinger.
Comments