Green Day - No Pride Chords & Tabs

 

No Pride Chords & Tabs

Green Day Chords & Tabs

Version: 2 Type: Tab 0 ratings
1 star 2 stars 3 stars 4 stars 5 stars
comments

No Pride Tab

   
Green Day-No Pride

Guitarist-Billie Joe Armstrong

Album-Insomniac

Tabber-Green Day FReak

Intro:

e|---------------------------------------------------
B|---------------------------------------------------
G|-----7-7-5-5-5-5-----7-7-5-5-5-5-5-----------------
D|-5-5-7-7-5-5-5-5-5-5-7-7-5-5-5-5-5-----------------
A|-5-5-5-5-3-3-3-3-5-5-5-5-3-3-3-3-3-----------------
E|-3-3-------------3-3-------------------------------
   G5  D5  C5      G5  D5  C5

e|---------------------------------------------------
B|---------------------------------------------------
G|-----7-7-5-5-5-5-----7-7-5-5-5-5-------------------
D|-5-5-7-7-5-5-5-5-5-5-7-7-5-5-5-5-------------------
A|-5-5-5-5-3-3-3-3-5-5-5-5-3-3-3-3-------------------
E|-3-3-------------3-3-------------------------------
   G5  D5  C5      G5  D5  C5


Verse:
[ Tab from: http://www.guitartabs.cc/tabs/g/green_day/no_pride_tab_ver_2.html ]
e|---------------------------------------------------
B|---------------------------------------------------
G|---------7-7-7-7-5-5-5-5---------------------------\
D|-5-5-5-5-7-7-7-7-5-5-5-5-5-5-5-5-5-5-5-5----------- \
A|-5-5-5-5-5-5-5-5-3-3-3-3-5-5-5-5-5-5-5-5-----------  \
E|-3-3-3-3-----------------3-3-3-3-3-3-3-3-----------   \
   G5      D5      C5      G5                            \    
                                                         / X2
e|---------------------------------------------------   /
B|---------------------------------------------------  /
G|-7-7-7-7-5-5-5-5----------------------------------- /
D|-7-7-7-7-5-5-5-5-5-5-5-5---------------------------/
A|-5-5-5-5-3-3-3-3-5-5-5-5---------------------------
E|-----------------3-3-3-3---------------------------   
   D5      C5      G5

Pre-Chorus:

e|---------------------------------------------------
B|---------------------------------------------------
G|-7-7-7-7-7-7-7-7-5---7--7-7-7-7--------------------
D|-7-7-7-7-7-7-7-7-5-5-7--7-7-7-7--------------------
A|-5-5-5-5-5-5-5-5-3-5-5--5-5-5-5--------------------
E|-------------------3-------------------------------
  D5              C5 G5 D5

e|---------------------------------------------------
B|---------------------------------------------------
G|-7-7-7-7-7-7-7-7-5---7--7-7-7-7--------------------
D|-7-7-7-7-7-7-7-7-5-5-7--7-7-7-7--------------------
A|-5-5-5-5-5-5-5-5-3-5-5--5-5-5-5--------------------
E|-------------------3-------------------------------
   D5             C5 G5 D5

Chorus:

e|---------------------------------------------------
B|---------------------------------------------------
G|---------2-2-2-2-5-5-5-5-8-8-8-8---------7-7-7-7---
D|-5-5-5-5-2-2-2-2-5-5-5-5-8-8-8-8-5-5-5-5-7-7-7-7---
A|-5-5-5-5-4-4-4-4-3-3-3-3-6-6-6-6-5-5-5-5-5-5-5-5---
E|-3-3-3-3-------------------------3-3-3-3-----------
   G5      Bm5     C5      D#5     G5      D5

Listen to cd for rhythym and strumming etc.

Enjoy!
Comments