Green Day - No One Knows Chords & Tabs

 

No One Knows Chords & Tabs

Green Day Chords & Tabs

Version: 2 Type: Bass Tab 0 ratings
1 star 2 stars 3 stars 4 stars 5 stars
comments

No One Knows Bass Tab

No One Knows: GREEN DAY (Kerplunk LP)

________________________________
I wrestled with learning this song for some time before I eventually got
it sounding pretty close (if not exact) to how the song on the album sounds.
The part in tabs here is JUST THE INTRO.  Fear not, however; the entire
song uses this same piece.  The part that is _NOT_ in "repeat" bars at the
beginning of the transcription is actually repeated twice during the song.
The rest of the transcription (most of which IS in "repeat" bars) is played
just as shown.  At the very end of this transcription is the short "ending"
of the entire song, as I play it.
________________________________

  Tune 1/2 Step Below Standard (Eb,Ab,Db,Gb)

Gb:---------12----------12------------------12------14-12------12----------11|
Db:-----12----------12------12----------12-----------------------------12----|
Ab:-14----------14--------------14--13----------13---------13------12--------|
Eb:--------------------------------------------------------------------------|



Gb:---------11------------------9----------9-------------------------12------|
Db:-----12------12----------12---------12-----12---------11--14----------14--|
Ab:-12--------------12--11---------11-------------11-12----------12----------|
Eb:--------------------------------------------------------------------------|



Gb:------------------------------------|
Db:11H12--11-11------11----------------|
Ab:--------------14------14--12--7--9--|
Eb:------------------------------------|

Gb:----------12----------12------12-----------14-----------14------14--------|
Db:*-----12----------12------12------11-H-12------11-H-12------12----------14|
Ab:*-10----------10----------------------------------------------------12----|
Eb:--------------------------------------------------------------------------|


[ Tab from: http://www.guitartabs.cc/tabs/g/green_day/no_one_knows_btab_ver_2.html ]
Gb:--14----------14----------14----------14----------------|
Db:----------14----------14----------14-------------------*|
Ab:------12----------12----------12----------12-H-14--12--*|
Eb:--------------------------------------------------------|


                                                                   (3x)
Gb:|-----------12----------12-----12-----------14-----------14-----------|
Db:|*------12----------12-------------11-H-12------11-H-12------12--11--*|
Ab:|*--10----------10---------10----------------------------------------*|
Eb:|---------------------------------------------------------------------|


Gb:-------------|
Db:-------------|
Ab:---12--(12)--|
Eb:-------------|

______________________________________________
(This is the afore mentioned "outro ending" thingy)

Gb:----------14---------14-------------------12----------12----------------|
Db:------14---------14------14-----------12----------12------12----0--(0)--|
Ab:--12---------12--------------12---10----------10-------------10---------|
Eb:------------------------------------------------------------------------|

_No_One_Knows_ Written by Green Day
>From Lookout Records

----------
"Any similarities between this transcription and the actual song is purely
coincidental"
+----------------------------------------+---------------------------------+
|  ____    ____                          |         acanterb@vt.edu         |
| (    `--'  .-'               _T_T_T_T_ |  ___                 __         |
| |8| O  O  |||||||||||||||||||[o o o o/ | /   \  |   | |\  /| |  | \   /  |
| (__,--.____\                 `~~~`--'  | |  ___ |   | | \/ | |--+. \ /   |
|                                        | \____| |___| |    | |___|  |    |
|    Bassist for Division by Zero        |                                 |
|                                                                          |
|   Check out the Web Page! http://sfbox.vt.edu:10021/R/rconnell/band.html |
|                                                                          |
+----------------------------------------+---------------------------------+
Comments