Green Day - Nightlife Chords & Tabs

 

Nightlife Chords & Tabs

Green Day Chords & Tabs

Version: 2 Type: Bass Tab 0 ratings
1 star 2 stars 3 stars 4 stars 5 stars
comments

Nightlife Bass Tab

Chorus 0:09 "My favourite color's candy apple, girl"
G|------------------------------------------------------|
D|--9--------5-----------5------------------------------|
A|---h7--5h7----5h7--5h7----5--------5--5s7--5h7--stop--|
E|---------------------------h7--5h7--------------------| 

Girl Verse 0:21 "What's that I hear? You wanna go for a ride?" 
G|---------------------------------------------------|
D|----------5------------5------------------------5~-|
A|---7~--5h7----5h7~--5h7---5---------5--5s7~--5h7---|
E|----------------------------h7~--5h7---------------|

"I'll be the devil on your shoulder saying"
G|--------------------------------------------------|
D|-9--------5------------5------------------------5-| 
A|--h7~--5h7----5h7~--5h7---5---------5--5s7~--5h7--|
E|---------------------------h7~--5h7---------------|

Chorus 0:40 "Taking a ride to my old haunt"
G|--------------------------------------------------|
D|-9--------5------------5------------------------5-| 
A|--h7~--5h7----5h7~--5h7---5---------5--5s7~--5h7--|
E|---------------------------h7~--5h7---------------|

"My favourite color's candy apple, girl"
G|--------------------------------------------------|
D|-9--------5------------5------------------------5-| 
A|--h7~--5h7----5h7~--5h7---5---------5--5s7~--5h7--|
E|---------------------------h7~--5h7---------------|

Girl Verse 1:00 "Short of breath, Heart beats fast"
G|--------------------------------------------------|
D|-9--------5------------5------------------------5-| 
A|--h7~--5h7----5h7~--5h7---5---------5--5s7~--5h7--|
E|---------------------------h7~--5h7---------------|
[ Tab from: http://www.guitartabs.cc/tabs/g/green_day/nightlife_btab_ver_2.html ]
"Red velvet walls, Line the sugar-coated halls"
G|--------------------------------------------------|
D|-9--------5------------5------------------------5-| 
A|--h7~--5h7----5h7~--5h7---5---------5--5s7~--5h7--|
E|---------------------------h7~--5h7---------------|

BJA Verse 1:21 "Well I am rollin', strollin' into town"
G|-----------5--------------------------------------|
D|-9h7~--5h7---5---------5------------------------5-| 
A|---------------h7~--5h7---5---------5--5s7~--5h7--|
E|---------------------------h7~--5h7---------------|

"This dirty city is my sugar town"
G|-----------5--------------------------------------|
D|-9h7~--5h7---5---------5--------------------------| 
A|---------------h7~--5h7---5---------5--5s7--stop--|
E|---------------------------h7~--5h7---------------|

Solo 1:41
G|---------------------------------------------------|
D|----------5------------5------------------------5~-|
A|---7~--5h7----5h7~--5h7---5---------5--5s7~--5h7---|
E|----------------------------h7~--5h7---------------|

G|------------------------------------------------------------|
D|-9--------5------------5------------------------5--9~--stop-| 
A|--h7~--5h7----5h7~--5h7---5---------5--5s7~--5h7------------|
E|---------------------------h7~--5h7-------------------------|

SILENCE 2:01 -> 2:21 (When the girl sings)

Chorus 2:21 "Taking a ride to my old haunt"
G|---------------------------------------------------|
D|----------5------------5------------------------5~-|
A|---7~--5h7----5h7~--5h7---5---------5--5s7~--5h7---|
E|----------------------------h7~--5h7---------------|

"My favourite color's candy apple, girl"
G|------------------------------------------------------------|
D|-9--------5------------5------------------------5--9~--stop-| 
A|--h7~--5h7----5h7~--5h7---5---------5--5s7~--5h7------------|
E|---------------------------h7~--5h7-------------------------|

Bass End 2:41


No bass at the end, only drums and voices.

Comments