Green Day - Nice Guys Finish Last Chords & Tabs

 

Nice Guys Finish Last Chords & Tabs

Green Day Chords & Tabs

Version: 5 Type: Bass Tab 0 ratings
1 star 2 stars 3 stars 4 stars 5 stars
comments

Nice Guys Finish Last Bass Tab

HI! I saw there wasn't a completely accurate tab for this song so I figured it out and Viola!

Intro:

G ------------------------------|
D ------------------------------|
A -----7--7-7-7-7---------------| x4
E --5--------------5--7--7-7-7-7|

-------------------------------------------------------------------|
-------------------------------------------------------------------|
----7--7-7-6h7-7-7-6h7-7-7-6h7---7--7-7-7-7-7-7-7-7-7-7-7-7-7-7-7-7|
--5----------------------------5-----------------------------------|

Verse:

------------------------------------------------------------------|
------------------------------------------------------------------|
--7-7-7-7-7-7-7-7-7-7-7-7-7-7-7-7-7-7-7-7-7-7-7-7-7-7-7-7-7-7-7-7-|
------------------------------------------------------------------|

-----------------------------------------------------------------|
-----------------------------------------------------------------|
---------------------------------7-7-7-7-7-7-7-7-7-7-7-7-7-7-7-7-|
-7-7-7-7-7-7-7-7-7-7-7-7-7-7-7-7---------------------------------|

-----------------------------------------------------------------|
-----------------------------------------------------------------|
---7-7-7-7-7-7-7-7-7-7-7-7-7-7-7-7-7-7-7-7-7-7-7-7-7-7-7-7-7-7-7-|
-5---------------------------------------------------------------|

-----------------------------------------------------------------|
-----------------------------------------------------------------|
---------------------------------7-7-7-7-7-7-7-7-7-7-7-7-7-5-4---|
-7-7-7-7-7-7-7-7-7-7-7-7-7-7-7-7-------------------------------7-|
[ Tab from: http://www.guitartabs.cc/tabs/g/green_day/nice_guys_finish_last_btab_ver_5.html ]
Pre-Chorus:
-----------------------------------------------------------------|
-----------------------------------------------------------------|
---------------------------------7-7-7-7-7-7-7-7-7-7-7-7-7-5-4---|
-5-5-5-5-5-5-5-5-5-5-5-5-5-5-5-5-------------------------------7-|

-----------------------------------------------------------------|
-----------------------------------------------------------------|
---------------------------------7-7-7-7-7-7-7-7-7-7-7-7-7-5-4---|
-5-5-5-5-5-5-5-5-5-5-5-5-5-5-5-5-------------------------------7-|

-----------------------------------------------------------------|
-----------------------------------------------------------------|
---------------------------------7-7-7-7-7-7-7-7-7-7-7-7-7-7-7-7-|
-5-5-5-5-5-5-5-5-5-5-5-5-5-5-5-5---------------------------------|

-----------------------------------------------------------------|
-----------------------------------------------------------------|
---------------------------------2-2-2-2-2-2-2-2-2-2-2-2-2-2-2-2-|
-2-2-2-2-2-2-2-2-2-2-2-2-2-2-2-2---------------------------------|

Chorus:

------------------------------|
------------------------------|
--------------0--0-0-0-0-0-0-0|x3
-0--0--0-0-0------------------|

---------------------------------|
---------1-1-2-2-4-4-2-2-1-1-----|
-2-2-4-4---------------------4-4-|
---------------------------------|

Bridge:

----------------------------|
----------------------------|
----7--7-7-7-7--------------|x3
-5-------------5--7--7-7-7-7|

-----------------------------------------------------------------------------|
-----------------------------------------------------------------------------|
----7--7-7-7-7-7------------------------------------------6-6-7-7-9-9-7-7----|
-5---------------4--5--5-5-5-5--4--2--2-2-2-2-5--7-7-9-9-----------------9-9-|

Outro:
------------------------------------|
------------------------------------|
----7--7-7-6h7-7-7-6h7-7-7-6h7-----7|
-5------------------------------5---|

Order:
Intro
Verse
Chorus
Verse
Chorus x2
Bridge
Chorus x2
Outro

Well, that's it! Hope you enjoy it and find it accurate!
Comments