Green Day - Nice Guys Finish Last Chords & Tabs

 

Nice Guys Finish Last Chords & Tabs

Green Day Chords & Tabs

Version: 2 Type: Bass Tab 0 ratings
1 star 2 stars 3 stars 4 stars 5 stars
comments

Nice Guys Finish Last Bass Tab

   
Song: Nice Guys Finish Last
Artist: Green Day
Album: Nimrod
Tabbed by: poncho phil
 
pre-intro
G|-----------|
D|-----------|
A|-----------|
E|5555555555-|x1

intro
G|----------------------------------------|
D|-------------------------789------------|
A|--77777-----------77777------7-66666----|
E|5-------5-77777-5--------------------9--|x1
  
intro cont.
G|----------------------------------------|
D|----------------------------------------|
A|----------77777-----------77777---------|
E|-77777--5-------5-77777-5-------5-77777-| x1

fill   
G|-------------------------------|
D|-------------------------------|
A|--5--7-77-5-7-77-5-7-77-5-7-77-|
E|-------------------------------| x1
 
Verse 1st part  (nice guys finsish last...)
G|------------------------------------------------|
D|------------------------------------------------|
A|-777777777777777-----------------77777777777777-|
E|-----------------777777777777777----------------| x2
 
verse 2nd part  (pressure cooker pick my brain...)
G|----------------------------------9p7-----|
D|-------------------------------------9p7--|
A|-----------------77-777-7-77-777----------|
E|-55-555-5-55-555--------------------------|x2
[ Tab from: http://www.guitartabs.cc/tabs/g/green_day/nice_guys_finish_last_btab_ver_2.html ]
verse 2nd part cont.
G|----------------------------------------|
D|----------------------------------------|
A|---------------77-777-7-77-777----------|
E|-555555555555---------------------------|x1

verse 2nd part cont. (never knew youre sucha funny guy...)
G|-------------------------------------|
D|-------------------------------------|
A|-------------------------------------|
E|-222222222222--77777777777-----------|x1
 
chorus 1st part (nice guys finish last...)
G|-------------------|
D|-------------------|
A|-------------------|
E|-0000000--55555555-|x2

chorus 2nd part
G|-------------------------------------------|
D|-------------------------------------------|
A|-------------------------66-77-99-77-66----|
E|-0000000--55555555-77-99----------------99-|x1


bridge
G|----------------------------------------------------------------|
D|-------------------------789------------------------------------|
A|--77777-----------77777------7-66666------------77777-----------|
E|5-------5-77777-5--------------------9--77777-5-------5-77777-5-|x1

bridge cont.
G|---------------------------------------------------|
D|---------------------------------------------------|
A|-77777--------------------------66-77-99-77-66-----|
E|--------7-5-555-4-2-222-5-77-99-----------------99-|x1

Order
 
Pre intro        x1  (palm mute)
Intro            x1
Fill         	 x1
Verse 1st part   x2
Verse 2nd part   x1
Chorus 1st part  x2
Chorus 2nd part  x1
Fill             x2
Verse 1st part   x3
Verse 2nd part   x1
Chorus 1st part  x2
Chorus 2nd part  x1
Bridge           x1
Fill             x1
Comments