Green Day - My Generation Chords & Tabs

 

My Generation Chords & Tabs

Green Day Chords & Tabs

Version: 3 Type: Tab 0 ratings
1 star 2 stars 3 stars 4 stars 5 stars
comments

My Generation Tab

Tablatura de NICO M. (nicokbbl@hotmail.com)

Artista: Green Day
Cancion: My Generation
Album: Kerplunk! (1991) 


1|---------------------------------------------------------|
2|---------------------------------------------------------|
3|---------------------------------------------------------|
4|--9-9-9-9-7-7-7-7-9-9-9-9-7-7-7-7------------------------|
5|--9-9-9-9-7-7-7-7-9-9-9-9-7-7-7-7------------------------|
6|--7-7-7-7-5-5-5-5-7-7-7-7-5-5-5-5------------------------|


   Well, people try to put us down

1|---------------------------------------------------------|
2|---------------------------------------------------------|
3|---------------------------------------------------------|
4|--9-9-9-9-7-7-7-7----------------------------------------|
5|--9-9-9-9-7-7-7-7----------------------------------------|
6|--7-7-7-7-5-5-5-5----------------------------------------|


  Talkin' bout my generation

  Just because we get around


1|---------------------------------------------------------|
2|---------------------------------------------------------|
3|---------------------------------------------------------|
4|--9-9-9-9-7-7-7-7----------------------------------------|
5|--9-9-9-9-7-7-7-7----------------------------------------|
6|--7-7-7-7-5-5-5-5----------------------------------------|


  Talkin' bout my generation

  The things they do look awful cold


1|---------------------------------------------------------|
2|---------------------------------------------------------|
3|---------------------------------------------------------|
4|--9-9-9-9-7-7-7-7----------------------------------------|
5|--9-9-9-9-7-7-7-7----------------------------------------|
6|--7-7-7-7-5-5-5-5----------------------------------------|


  Talkin' bout my generation

  I hope I die before I get old

1|---------------------------------------------------------|
2|---------------------------------------------------------|
3|---------------------------------------------------------|
4|--9-9-9-9-7-7-7-7----------------------------------------|
5|--9-9-9-9-7-7-7-7----------------------------------------|
6|--7-7-7-7-5-5-5-5----------------------------------------|


  Talkin' bout my generation


1|---------------------------------------------------------|
2|---------------------------------------------------------|
3|---------------------------------------------------------|
4|--9-9-9-9-7-7-7-7----------------------------------------|
5|--9-9-9-9-7-7-7-7----------------------------------------|
6|--7-7-7-7-5-5-5-5----------------------------------------|


  My generation


  Why don't you all just fade away?


1|---------------------------------------------------------|
2|---------------------------------------------------------|
3|---------------------------------------------------------|
4|--9-9-9-9-7-7-7-7----------------------------------------|
5|--9-9-9-9-7-7-7-7----------------------------------------|
6|--7-7-7-7-5-5-5-5----------------------------------------|


  Talkin' bout my generation

  And don't try to dig what we all say


1|---------------------------------------------------------|
2|---------------------------------------------------------|
3|---------------------------------------------------------|
4|--9-9-9-9-7-7-7-7----------------------------------------|
5|--9-9-9-9-7-7-7-7----------------------------------------|
6|--7-7-7-7-5-5-5-5----------------------------------------|


  Talkin' bout my generation
  
  I'm not trying to cause a big sensation


[ Tab from: http://www.guitartabs.cc/tabs/g/green_day/my_generation_tab_ver_3.html ]
1|---------------------------------------------------------|
2|---------------------------------------------------------|
3|---------------------------------------------------------|
4|--9-9-9-9-7-7-7-7----------------------------------------|
5|--9-9-9-9-7-7-7-7----------------------------------------|
6|--7-7-7-7-5-5-5-5----------------------------------------|


  Talkin' bout my generation

  I'm just talkin' bout my generation


1|---------------------------------------------------------|
2|---------------------------------------------------------|
3|---------------------------------------------------------|
4|--9-9-9-9-7-7-7-7----------------------------------------|
5|--9-9-9-9-7-7-7-7----------------------------------------|
6|--7-7-7-7-5-5-5-5----------------------------------------|


  Talkin' bout my generation


  My generation.


1|---------------------------------------------------------|
2|---------------------------------------------------------|
3|---------------------------------------------------------|x4
4|--9-9-9-9-7-7-7-7----------------------------------------|
5|--9-9-9-9-7-7-7-7----------------------------------------|
6|--7-7-7-7-5-5-5-5----------------------------------------|



1|---------------------------------------------------------|
2|---------------------------------------------------------|
3|---------------------------------------------------------|
4|--9-9-9-9-7-7-7-7-9-9-9-9-7-7-7-7------------------------|
5|--9-9-9-9-7-7-7-7-9-9-9-9-7-7-7-7------------------------|
6|--7-7-7-7-5-5-5-5-7-7-7-7-5-5-5-5------------------------|


  Why don't you all just fade away?


1|---------------------------------------------------------|
2|---------------------------------------------------------|
3|---------------------------------------------------------|
4|--9-9-9-9-7-7-7-7----------------------------------------|
5|--9-9-9-9-7-7-7-7----------------------------------------|
6|--7-7-7-7-5-5-5-5----------------------------------------|


  Talkin' bout my generation

  And don't try to dig what we all say


1|---------------------------------------------------------|
2|---------------------------------------------------------|
3|---------------------------------------------------------|
4|--9-9-9-9-7-7-7-7----------------------------------------|
5|--9-9-9-9-7-7-7-7----------------------------------------|
6|--7-7-7-7-5-5-5-5----------------------------------------|


  Talkin' bout my generation

  I'm not trying to cause a big sensation



1|---------------------------------------------------------|
2|---------------------------------------------------------|
3|---------------------------------------------------------|
4|--9-9-9-9-7-7-7-7----------------------------------------|
5|--9-9-9-9-7-7-7-7----------------------------------------|
6|--7-7-7-7-5-5-5-5----------------------------------------|


  Talkin' bout my generation

  I'm just talkin' bout my generation


1|---------------------------------------------------------|
2|---------------------------------------------------------|
3|---------------------------------------------------------|
4|--9-9-9-9-7-7-7-7----------------------------------------|
5|--9-9-9-9-7-7-7-7----------------------------------------|
6|--7-7-7-7-5-5-5-5----------------------------------------|


  Talkin' bout my generation


1|---------------------------------------------------------|
2|---------------------------------------------------------|
3|---------------------------------------------------------|x12
4|--9-9-9-9-7-7-7-7-9-9-9-9-7-7-7-7------------------------|
5|--9-9-9-9-7-7-7-7-9-9-9-9-7-7-7-7------------------------|
6|--7-7-7-7-5-5-5-5-7-7-7-7-5-5-5-5------------------------|
Comments