Green Day - Murder City Chords & Tabs

 

Murder City Chords & Tabs

Green Day Chords & Tabs

Version: 8 Type: Tab 0 ratings
1 star 2 stars 3 stars 4 stars 5 stars
comments

Murder City Tab

   
Song: Murder City
Band: Green Day
Album: 21st Century Breakdown


Key:

*:- Palm-mute
~:- Let ring
^(#):- Bend to fret


Gtr I: Standard Tuning (e,B,G,D,A,e)
Gtr II: Standard Tuning (e,B,G,D,A,E) (Overdubbed and played live by Jason White)



Intro/Chorus: (Repeat x2)

Gtr I 

e:|-----------------------------------------------------------------|
B:|-----------------------------------------------------------------|
G:|---------------------------------8-8-8-8-8-8-8-8-8-8-8-8-8-8-8-8-|
D:|-9-9-9-9-9-9-9-9-9-9-9-9-9-9-9-9-8-8-8-8-8-8-8-8-8-8-8-8-8-8-8-8-|
A:|-9-9-9-9-9-9-9-9-9-9-9-9-9-9-9-9-6-6-6-6-6-6-6-6-6-6-6-6-6-6-6-6-|
E:|-7-7-7-7-7-7-7-7-7-7-7-7-7-7-7-7---------------------------------|

e:|-----------------------------------------------------------------|
B:|---------------------------------9-9-9-9-9-9-9-9-8-8-8-8-8-8-8-8-|
G:|---------------------------------9-9-9-9-9-9-9-9-9-9-9-9-9-9-9-9-|
D:|-6-6-6-6-6-6-6-6-6-6-6-6-6-6-6-6-9-9-9-9-9-9-9-9-9-9-9-9-9-9-9-9-|
A:|-6-6-6-6-6-6-6-6-6-6-6-6-6-6-6-6-7-7-7-7-7-7-7-7-7-7-7-7-7-7-7-7-|
E:|-4-4-4-4-4-4-4-4-4-4-4-4-4-4-4-4---------------------------------|


Verse I: (Repeat x2)

Gtr I 

e:|-----------------------------------------------------------------|
B:|-----------------------------------------------------------------|
G:|-----------------------------------------------------------------|
D:|-----------------8-8-8-8-8-8-8-8---------------------------------|
A:|-9-9-9-9-9-9-9-9-6-6-6-6-6-6-6-6-6-6-6-6-6-6-6-6-6-6-6-6-6-6-6-6-|
E:|-7-7-7-7-7-7-7-7-----------------4-4-4-4-4-4-4-4-4-4-4-4-4-4-4-4-|
PM    * * * * * * * * * * * * * * *   * * * * * * * * * * * * * * *

e:|------------------------------------------------------------------|
B:|------------------------------------------------------------------|
G:|------------------------------------------------------------------|
D:|-9-9-9-9-9-9-9-9-----------------11111111111111111111111111111111-|
A:|-7-7-7-7-7-7-7-7-9-9-9-9-9-9-9-9--9-9-9-9-9-9-9-9-9-9-9-9-9-9-9-9-|
E:|-----------------7-7-7-7-7-7-7-7----------------------------------|
PM    * * * * * * *   * * * * * * *    * * * * * * * * * * * * * * *


Pre Chorus I:

Gtr I
[ Tab from: http://www.guitartabs.cc/tabs/g/green_day/murder_city_tab_ver_8.html ]
e:|-----------------------------------|
B:|---------------------------------8-|
G:|-9-9-9-9-9-9-9-9-9-9-9-9-9-9-9-9-9-|
D:|-9-9-9-9-9-9-9-9-9-9-9-9-9-9-9-9-9-|
A:|-7-7-7-7-7-7-7-7-7-7-7-7-7-7-7-7-7-|
E:|-----------------------------------|


Repeat Chorus x2


Solo: (Repeat x2)

Gtr I 

e:|-----------------------------------------------------------------|
B:|-----------------------------------------------------------------|
G:|---------------------------------8-8-8-8-8-8-8-8-8-8-8-8-8-8-8-8-|
D:|-9-9-9-9-9-9-9-9-9-9-9-9-9-9-9-9-8-8-8-8-8-8-8-8-8-8-8-8-8-8-8-8-|
A:|-9-9-9-9-9-9-9-9-9-9-9-9-9-9-9-9-6-6-6-6-6-6-6-6-6-6-6-6-6-6-6-6-|
E:|-7-7-7-7-7-7-7-7-7-7-7-7-7-7-7-7---------------------------------|

e:|-----------------------------------------------------------------|
B:|-----------------------------------------------------------------|
G:|---------------------------------9-9-9-9-9-9-9-9-9-9-9-9-9-9-9-9-|
D:|-6-6-6-6-6-6-6-6-6-6-6-6-6-6-6-6-9-9-9-9-9-9-9-9-9-9-9-9-9-9-9-9-|
A:|-6-6-6-6-6-6-6-6-6-6-6-6-6-6-6-6-7-7-7-7-7-7-7-7-7-7-7-7-7-7-7-7-|
E:|-4-4-4-4-4-4-4-4-4-4-4-4-4-4-4-4---------------------------------|

Gtr II

e:|----------------------------------------------------------------|
B:|-7------7-------7------7-------8-------8--------8-------9-11--9-|
G:|-9^(11)-9^(11)--9^(11)-9^(11)--10^(12)-10^(12)--10^(12)---------|
D:|----------------------------------------------------------------|
A:|----------------------------------------------------------------|
E:|----------------------------------------------------------------|

e:|--------------------------------------------------------------------|
B:|-9-------9--------9-------9--------9-------9--------8-------8-------|
G:|-11^(13)-11^(13)--11^(13)-11^(13)--11^(13)-11^(13)--10^(12)-10^(12)-|
D:|--------------------------------------------------------------------|
A:|--------------------------------------------------------------------|
E:|--------------------------------------------------------------------|


Verse II: For this just repeat Verse I, but change palm muting pattern as necessary.


Pre-Chorus II:


Gtr I

e:|---------------------------------------|
B:|---------------------------------8~~~~-|
G:|-9-9-9-9-9-9-9-9-9-9-9-9-9-9-9-9-9~~~~-|
D:|-9-9-9-9-9-9-9-9-9-9-9-9-9-9-9-9-9~~~~-|
A:|-7-7-7-7-7-7-7-7-7-7-7-7-7-7-7-7-7~~~~-|
E:|---------------------------------------|


Repeat Chorus x2


Outro: For this, simply repeat Gtr I and Gtr II's parts in the solo (x2), and end on:

e:|-------|
B:|-8~~~~-|
G:|-9~~~~-|
D:|-9~~~~-|
A:|-7~~~~-|
E:|-------|

Comments