Green Day - Murder City Chords & Tabs

 

Murder City Chords & Tabs

Green Day Chords & Tabs

Version: 7 Type: Bass Tab 0 ratings
1 star 2 stars 3 stars 4 stars 5 stars
comments

Murder City Bass Tab

   
-------------------------------------------------------------------------------
			     Murder City-Green Day
-------------------------------------------------------------------------------

Tabbed By:Stjimmy34 
Tuning:Standard


Chorus x2
G|---------------------------------------------------------------------------|
D|-----------------6(x16)----------------------------------------------------|
A|---------6(x16)----------7(x16)--------------------------------------------|
E|-7(x16)--------------------------------------------------------------------|
[ Tab from: http://www.guitartabs.cc/tabs/g/green_day/murder_city_btab_ver_7.html ]
Verse
G|--------------------------------------------------|------------------------|
D|--------------------------------------------(x2)--|------------------------|
A|--------6(x8)----------7(x8)--------9(x16)--------|-77777777-7-------------|
E|-7(x8)---------4(x16)--------7(x8)----------------|------------------------|

Chorus x4

Verse

Chorus x4

The fourth time goes like this
G|---------------------------------------------------------------------------|
D|-----------------6(X16)----------------------------------------------------|
A|---------6(X16)----------7~------------------------------------------------|
E|-7(x16)--------------------------------------------------------------------|



| /  slide up
| \  slide down
| h  hammer-on
| p  pull-off
| ~  vibrato
| +  harmonic
| x  Mute note
===============================================================================
Comments