Green Day - Misery Chords & Tabs

 

Misery Chords & Tabs

Green Day Chords & Tabs

Version: 1 Type: Tab 0 ratings
1 star 2 stars 3 stars 4 stars 5 stars
comments

Misery Tab

          From: Chris Lalley
          Song: Misery
          Band: Green Day
          Album: Warning
          
          : - let ring
          
          
          intro
          
          |---------------------------------|
          |-2-2-2-2-2-2-2-2-2-2-2-2-2-2-2-2-|
          |-3-3-3-3-3-3-3-3-3-3-3-3-3-3-3-3-|
          |-3-3-3-3-3-3-3-3-3-3-3-3-3-3-3-3-|
          |-1-1-1-1-1-1-1-1-1-1-1-1-1-1-1-1-|
          |---------------------------------|
          
          verse
          
          |-------------------------------------------------------------------------
          |-2--2--2--2--2--2--2--2--2--2--2--2--2--2--2--2--2--2--2--2--------------
          |-3--3--3--3--3--3--3--3--3--3--3--3--3--3--3--3--3--3--3--3--2--2--2--2--
          |-3--3--3--3--3--3--3--3--3--3--3--3--3--3--3--3--3--3--3--3--3--3--3--3--
          |-1--1--1--1--1--1--1--1--1--1--1--1--1--1--1--1--1--1--1--1--3--3--3--3--
          |-------------------------------------------------------------1--1--1--1--
          
           -----------------------------------------------|
           -2--2--2--2--2:---1:---------------2--2--2--2--|
           -3--3--3--3--3:---2:---2--2--2--2--3--3--3--3--|
           -3--3--3--3--3:---3:---3--3--3--3--3--3--3--3--|
           -1--1--1--1--1:---0:---3--3--3--3--1--1--1--1--|
           -----------------------1--1--1--1--------------|
          
          chorus
          
          |-------------------------------------------------------------------------
          |-------------2--2--2--2--------------2--2--2--2--------------2--2--2--2--
          |-2--2--2--2--3--3--3--3--2--2--2--2--3--3--3--3--2--2--2--2--3--3--3--3--
          |-3--3--3--3--3--3--3--3--3--3--3--3--3--3--3--3--3--3--3--3--3--3--3--3--
          |-3--3--3--3--1--1--1--1--3--3--3--3--1--1--1--1--3--3--3--3--1--1--1--1--
          |-1--1--1--1--------------1--1--1--1--------------1--1--1--1--------------
          
           -------------------------|
           -------------------------|
           -2-2-2-2-2-2-2-2-2-2-2-2-|
           -2-2-2-2-2-2-3-3-3-3-3-3-|
           -2-2-2-2-2-2-3-3-3-3-3-3-|
           -0-0-0-0-0-0-1-1-1-1-1-1-|
          
          bridge
          
          |-------------------------------------------------------------------------
          |-----------------2--2--2--2------------------2--2--2--2------------------
          |-3-3-3-3-2-2-2-2-3--3--3--3--3-3-3-3-2-2-2-2-3--3--3--3--3-3-3-3-2-2-2-2-
          |-4-4-4-4-3-3-3-3-3--3--3--3--4-4-4-4-3-3-3-3-3--3--3--3--4-4-4-4-3-3-3-3-
          |-4-4-4-4-3-3-3-3-1--1--1--1--4-4-4-4-3-3-3-3-1--1--1--1--4-4-4-4-3-3-3-3-
          |-2-2-2-2-1-1-1-1-------------2-2-2-2-1-1-1-1-------------2-2-2-2-1-1-1-1-
          
           ---------------------------------------|
           -2--2--2--2----------------------------|
           -3--3--3--3--3-3-3-3-3-3-3-3-2-2-2-2-2-|
           -3--3--3--3--4-4-4-4-4-4-4-4-3-3-3-3-3-|
           -1--1--1--1--4-4-4-4-4-4-4-4-3-3-3-3-3-|
           -------------2-2-2-2-2-2-2-2-1-1-1-1-1-|
[ Tab from: http://www.guitartabs.cc/tabs/g/green_day/misery_tab.html ]
Comments