Green Day - Minority Chords & Tabs

 

Minority Chords & Tabs

Green Day Chords & Tabs

Version: 3 Type: Tab 9 ratings
1 star 2 stars 3 stars 4 stars 5 stars
comments

Minority Tab

   
Here is Green Day\'s new single \"Minority.\" 

Intro/Outro:  Play clean, extra strings make it sound good too
C     Gadd4   F       C    
----------3-------1----------------------3---1-1-1-0-
---1-------3-------1-------1------1-------3--1-1-1-1-
----0----------2------------0------0---------0-0-0-0-
-2------------3-3--------2------2------------3-2-0-2-
3-3----2--------------0h3------3-3-----2-----------3-
------3-3-----------------------------3-2------------


Chorus: Distorted...down up down up down up aggressive strumming
-----------------------------------------------
-----------------------------------------------
-----------------------------------------------
5-5-5-5-5-5-------------------------------------
5-5-5-5-5-5-3-3-3-3-3-3-5-5-5-5-5-5-3-3-3-3-3-3-
3-3-3-3-3-3-3-3-3-3-3-3-5-5-5-5-5-5-3-3-3-3-3-3-
------------1-1-1-1-1-1-3-3-3-3-3-3-1-1-1-1-1-1-

Repeat 4x

Verse:  The verse is the intro strummed 4x  w/o the little end 
decention.
[ Tab from: http://www.guitartabs.cc/tabs/g/green_day/minority_tab_ver_3.html ]
Interlude
------------------------------------------------------------
------------------------------------------------------------
----------------4-5-5-5-5-5--------------------------------4
2-2-2-2-2-2-2-2-4-5-5-5-5-5-5-5-5-5-5--5-5-2-2-2-2-2-2-2-2-4
2-2-2-2-2-2-2-2-2-3-3-3-3-3-5-5-5-5-5--5-5-2-2-2-2-2-2-2-2-2
0-0-0-0-0-0-0-0-------------3-3-3-3-3--3-3-0-0-0-0-0-0-0-0--

-------------------------------------------------------------
-------------------------------------------------------------
5-5-5-5-5-7-7-7-7-7--7-7-----------------4-5-5-5-5-5---------
5-5-5-5-5-7-7-7-7-7--7-7-2-2-2-2-2-2-2-2-4-5-5-5-5-5-5-5-5-5-5
3-3-3-3-3-5-5-5-5-5--5-7-2-2-2-2-2-2-2-2-2-3-3-3-3-3-5-5-5-5-5
-------------------------0-0-0-0-0-0-0-0-------------3-3-3-3-3

--------------------------------------------------------------
--------------------------------------------------------------
----------------5---------------------------------------------
2-2-2-2-2-2-2-2-5-5-5-xxx-5-5-xxx-5-5-xxx-5-5
2-2-2-2-2-2-2-2-3-5-5-xxx-5-5-xxx-5-5-xxx-5-5
0-0-0-0-0-0-0-0---3-3-xxx-3-3-xxx-3-3-xxx-3-3

order:
Intro
chorus
verse
chorus
interlude
verse
chorus
interlude
verse
chorus
chorus
outro

Thats about it.  I dont\'t have the words but there are a lot of lyric
websites you can check out. If you have any questions you can write me
at Bryzor@aol.com.  Enjoy.
Comments