Green Day - Minority Chords & Tabs

 

Minority Chords & Tabs

Green Day Chords & Tabs

Version: 10 Type: Tab 0 ratings
1 star 2 stars 3 stars 4 stars 5 stars
comments

Minority Tab

   
Minority - Green Day

Guitar 1  Acoustic - EADGBE            Guitar 2 - Electric - EADGBE

C - X32010   G - 320003   FMaj7 - XX3210   F - 133211 or XX3211


  Acoustic Riff - Guitar 1
  C         G           FMaj7     C
E|---------------------|-------0-------------|
B|-------1---------3---|---1-----1-------1---|
G|---0-----0---0-----0-|-----2---------0---0-|
D|-----2---------0-----|-3---------0h2-------|
A|-3-------------------|---------------------|
E|-----------3---------|---------------------|

  C         G           FMaj7  C
E|----------------------|---------|
B|-------1---------3----|---------|
G|-----0---0---0------0-|-2-0-----|
D|-0h2-----------0------|-3-2-0-2-|
A|----------------------|-------3-|
E|-----------3----------|---------|

  Chorus  Guitar 2
E|----------------------------------------|
B|----------------------------------------|
G|-5-5-5-5--------------------------------|
D|-5-5-5-5---3-3-3-3---5-5-5-5---3-3-3-3--|
A|-3-3-3-3---3-3-3-3---5-5-5-5---3-3-3-3--|
E|-----------1-1-1-1---3-3-3-3---1-1-1-1--|
 
E|----------------------------------------|
B|----------------------------------------|
G|-5-5-5-5--------------------------------|
D|-5-5-5-5---3-3-3-3---5-5-5-5---3-3-3-3--|
A|-3-3-3-3---3-3-3-3---5-5-5-5---3-3-3-3--|
E|-----------1-1-1-1---3-3-3-3---1-1-1-1--|
 
E|----------------------------------------|
B|----------------------------------------|
G|-5-5-5-5--------------------------------|
D|-5-5-5-5---3-3-3-3---5-5-5-5---3-3-3-3--|
A|-3-3-3-3---3-3-3-3---5-5-5-5---3-3-3-3--|
E|-----------1-1-1-1---3-3-3-3---1-1-1-1--|
 
E|----------------------------------------|
B|----------------------------------------|
G|-5-5-5-5--------------------------------|
D|-5-5-5-5---3-3-3-3---5-5-5-5---3-3-3-3--|
A|-3-3-3-3---3-3-3-3---5-5-5-5---3-3-3-3--|
E|-----------1-1-1-1---3-3-3-3---1-1-1-1--|

Verse  Guitar 1

    C         G        FMaj7       C
  I pledge allegiance to the underworld 
      C           G               F           G
  One nation underdog there of which I stand alone
    C           G        FMaj7             C
  A face in the crowd, a song against them all
      C            F                G          C
  Without a doubt, singled out, the only way I know

  Chorus  Guitar 2
E|----------------------------------------|
B|----------------------------------------|
G|-5-5-5-5--------------------------------|
D|-5-5-5-5---3-3-3-3---5-5-5-5---3-3-3-3--|
A|-3-3-3-3---3-3-3-3---5-5-5-5---3-3-3-3--|
E|-----------1-1-1-1---3-3-3-3---1-1-1-1--|
 
E|----------------------------------------|
B|----------------------------------------|
G|-5-5-5-5--------------------------------|
D|-5-5-5-5---3-3-3-3---5-5-5-5---3-3-3-3--|
A|-3-3-3-3---3-3-3-3---5-5-5-5---3-3-3-3--|
E|-----------1-1-1-1---3-3-3-3---1-1-1-1--|
 
E|----------------------------------------|
B|----------------------------------------|
G|-5-5-5-5--------------------------------|
D|-5-5-5-5---3-3-3-3---5-5-5-5---3-3-3-3--|
A|-3-3-3-3---3-3-3-3---5-5-5-5---3-3-3-3--|
E|-----------1-1-1-1---3-3-3-3---1-1-1-1--|
 
E|----------------------------------------|
B|----------------------------------------|
G|-5-5-5-5--------------------------------|
D|-5-5-5-5---3-3-3-3---5-5-5-5---3-3-3-3--|
A|-3-3-3-3---3-3-3-3---5-5-5-5---3-3-3-3--|
E|-----------1-1-1-1---3-3-3-3---1-1-1-1--|

  Bridge - Guitar 2
E|---------------------------------------------------|
B|---------------------------------------------------|
G|---------9-10101010-----------2222222--------------|
D|-7777777-9-10101010-10101010--2222222-2-3333-5555--|
A|-7777777-7-8-8-8-8--10101010--0000000-2-3333-5555--|
E|-5555555------------8-8-8-8-----------0-1111-3333--|

E|----------------------------------------------------------------|
B|----------------------------------------------------------------|
G|---------9-10101010----------2222222-------------------------4--|
D|-7777777-9-10101010-10101010-2222222--3-5-5xxx5-5xxx5-5-5555-4--|
A|-7777777-7-8-8-8-8--10101010-0000000--3-5-5xxx5-5xxx5-5-5555-2--|
E|-5555555------------8-8-8-8-----------1-3-3xxx3-3xxx3-3-3333----|
[ Tab from: http://www.guitartabs.cc/tabs/g/green_day/minority_tab_ver_10.html ]
Verse - Guitar 1
 
    C         G        FMaj7       C
  One light, one mind flashing in the dark
      C           G               F           G
  Blinded by the silence of a thousand broken hearts
    C           G        FMaj7             C
  "For crying out loud" she screamed unto me
      C            F                G          C
  A free for all, F*ck 'em all, You are your own sight

  Chorus - Guitar 2
E|----------------------------------------|
B|----------------------------------------|
G|-5-5-5-5--------------------------------|
D|-5-5-5-5---3-3-3-3---5-5-5-5---3-3-3-3--|
A|-3-3-3-3---3-3-3-3---5-5-5-5---3-3-3-3--|
E|-----------1-1-1-1---3-3-3-3---1-1-1-1--|
 
E|----------------------------------------|
B|----------------------------------------|
G|-5-5-5-5--------------------------------|
D|-5-5-5-5---3-3-3-3---5-5-5-5---3-3-3-3--|
A|-3-3-3-3---3-3-3-3---5-5-5-5---3-3-3-3--|
E|-----------1-1-1-1---3-3-3-3---1-1-1-1--|
 
E|----------------------------------------|
B|----------------------------------------|
G|-5-5-5-5--------------------------------|
D|-5-5-5-5---3-3-3-3---5-5-5-5---3-3-3-3--|
A|-3-3-3-3---3-3-3-3---5-5-5-5---3-3-3-3--|
E|-----------1-1-1-1---3-3-3-3---1-1-1-1--|
 
E|----------------------------------------|
B|----------------------------------------|
G|-5-5-5-5--------------------------------|
D|-5-5-5-5---3-3-3-3---5-5-5-5---3-3-3-3--|
A|-3-3-3-3---3-3-3-3---5-5-5-5---3-3-3-3--|
E|-----------1-1-1-1---3-3-3-3---1-1-1-1--|

  Bridge - Guitar 2
E|--------------------------------------------------|
B|--------------------------------------------------|
G|---------9-10101010----------2222222--------------|
D|-7777777-9-10101010-10101010-2222222-2-3333-5555--|
A|-7777777-7-8-8-8-8--10101010-0000000-2-3333-5555--|
E|-5555555------------8-8-8-8----------0-1111-3333--|

E|----------------------------------------------------------------|
B|----------------------------------------------------------------|
G|---------9-10101010----------2222222-------------------------4--|
D|-7777777-9-10101010-10101010-2222222--3-5-5xxx5-5xxx5-5-5555-4--|
A|-7777777-7-8-8-8-8--10101010-0000000--3-5-5xxx5-5xxx5-5-5555-2--|
E|-5555555------------8-8-8-8-----------1-3-3xxx3-3xxx3-3-3333----|

Verse - Guitar 1

    C         G        FMaj7       C
  One light, one mind flashing in the dark
      C           G               F           G
  Blinded by the silence of a thousand broken hearts
    C           G        FMaj7             C
  "For crying out loud" she screamed unto me
      C            F                G          C
  A free for all, F*ck 'em all, You are your own sigh

  Chorus - Guitar 2
E|----------------------------------------|
B|----------------------------------------|
G|-5-5-5-5--------------------------------|
D|-5-5-5-5---3-3-3-3---5-5-5-5---3-3-3-3--|
A|-3-3-3-3---3-3-3-3---5-5-5-5---3-3-3-3--|
E|-----------1-1-1-1---3-3-3-3---1-1-1-1--|
 
E|----------------------------------------|
B|----------------------------------------|
G|-5-5-5-5--------------------------------|
D|-5-5-5-5---3-3-3-3---5-5-5-5---3-3-3-3--|
A|-3-3-3-3---3-3-3-3---5-5-5-5---3-3-3-3--|
E|-----------1-1-1-1---3-3-3-3---1-1-1-1--|
 
E|----------------------------------------|
B|----------------------------------------|
G|-5-5-5-5--------------------------------|
D|-5-5-5-5---3-3-3-3---5-5-5-5---3-3-3-3--|
A|-3-3-3-3---3-3-3-3---5-5-5-5---3-3-3-3--|
E|-----------1-1-1-1---3-3-3-3---1-1-1-1--|
 
E|----------------------------------------|
B|----------------------------------------|
G|-5-5-5-5--------------------------------|
D|-5-5-5-5---3-3-3-3---5-5-5-5---3-3-3-3--|
A|-3-3-3-3---3-3-3-3---5-5-5-5---3-3-3-3--|
E|-----------1-1-1-1---3-3-3-3---1-1-1-1--|

  Outro riff - Guitar 2
E|--------8-------------------8---8-8---8--|
B|------8---8---------------8---8-----8----|
G|-9-10-------10-9----9-10-----------------|
D|-----------------10----------------------|
A|-----------------------------------------|
E|-----------------------------------------|

  Acoustic Riff - Guitar 1
  C         G           FMaj7     C
E|---------------------|-------0-------------|
B|-------1---------3---|---1-----1-------1---|
G|---0-----0---0-----0-|-----2---------0---0-|
D|-----2---------0-----|-3---------0h2-------|
A|-3-------------------|---------------------|
E|-----------3---------|---------------------|

  C         G           FMaj7  C
E|----------------------|---------|
B|-------1---------3----|---------|
G|-----0---0---0------0-|-2-0-----|
D|-0h2-----------0------|-3-2-0-2-|
A|----------------------|-------3-|
E|-----------3----------|---------|
Comments