Green Day - Minority Chords & Tabs

 

Minority Chords & Tabs

Green Day Chords & Tabs

Version: 8 Type: Bass Tab 0 ratings
1 star 2 stars 3 stars 4 stars 5 stars
comments

Minority Bass Tab

Artist: Green Day

Album: Warning

Song: Minority

Please rate this tab, it is my first one!

this tab is probably 99% correct, but if u have any problems contact me at non_smelly@hotmail.com. enjoy! ^^

p = Pause

Chorus

(Wait for accoustic guitar intro, 7 secs)
G:|-----------------------------------|
D:|-----------------------------------|   X4
A:|-3333------------------------------|
E:|------1111--3333--1111-------------|

Verse

G:|-----------------------------------|
D:|----2-0--------33-2-0--------------|
A:|-33--------2-0--------33-2-0-------|
E:|--------33-------------------------|


G:|-----------------------------------|
D:|----2-0----------------------------|
A:|-33--------2-0------------2-0------|
E:|--------33-----11-0-1--33----------|


G:|-----------------------------------|-------------------------|
D:|----2-0--------33-2-0--------------|----22--33--22-----------|
A:|-33--------2-0--------33-2-0-------|-33---------------2-3----|
E:|--------33-------------------------|---------------33--------|

Chorus

G:|-----------------------------------|
D:|-----------------------------------|   X4
A:|-3333------------------------------|
E:|------1111--3333--1111-------------|

Bridge

G:|------------------------------------------|
D:|------------------------------------------|
A:|--------6-7777----------------------------|
E:|-555555--------7777--5555555-0-1111--3333-|


G:|------------------------------------------------|
D:|------------------------------------------------|
A:|--------6-7777----------------------------------|
E:|-555555--------7777--5555555-0-1-33-p-33-p-33333|

Verse

G:|-----------------------------------|
D:|----2-0--------33-2-0--------------|
A:|-33--------2-0--------33-2-0-------|
E:|--------33-------------------------|


G:|-----------------------------------|
D:|----2-0----------------------------|
A:|-33--------2-0------------2-0------|
E:|--------33-----11-0-1--33----------|

[ Tab from: http://www.guitartabs.cc/tabs/g/green_day/minority_btab_ver_8.html ]
G:|-----------------------------------|-------------------------|
D:|----2-0--------33-2-0--------------|----22--33--22-----------|
A:|-33--------2-0--------33-2-0-------|-33---------------2-3----|
E:|--------33-------------------------|---------------33--------|

Chorus

G:|-----------------------------------|
D:|-----------------------------------|   X4
A:|-3333------------------------------|
E:|------1111--3333--1111-------------|

Bridge

G:|------------------------------------------|
D:|------------------------------------------|
A:|--------6-7777----------------------------|
E:|-555555--------7777--5555555-0-1111--3333-|


G:|------------------------------------------------|
D:|------------------------------------------------|
A:|--------6-7777----------------------------------|
E:|-555555--------7777--5555555-0-1-33-p-33-p-33333|

Verse (extra long)

G:|-----------------------------------|
D:|----2-0--------33-2-0--------------|
A:|-33--------2-0--------33-2-0-------|
E:|--------33-------------------------|


G:|-----------------------------------|
D:|----2-0----------------------------|
A:|-33--------2-0------------2-0------|
E:|--------33-----11-0-1--33----------|


G:|-----------------------------------|
D:|----2-0--------33-2-0--------------|
A:|-33--------2-0--------33-2-0-------|
E:|--------33-------------------------|


G:|-----------------------------------|
D:|----2-0----------------------------|
A:|-33--------2-0------------2-0------|
E:|--------33-----11-0-1--33----------|


G:|-----------------------------------|-------------------------|
D:|----2-0--------33-2-0--------------|----22--33--22-----------|
A:|-33--------2-0--------33-2-0-------|-33---------------2-3----|
E:|--------33-------------------------|---------------33--------|

                      (on last one play this note once and dont let it ring)
Chorus                                          ||
                                                \/  
G:|-----------------------------------|       |-----|
D:|-----------------------------------|   X8  |-----|
A:|-3333------------------------------|       |-3---|
E:|------1111--3333--1111-------------|       |-----|

BTW this is in the order that the song acctually goes so dont worry, cya ^^!
Comments