Green Day - Minority Chords & Tabs

 

Minority Chords & Tabs

Green Day Chords & Tabs

Version: 7 Type: Bass Tab 0 ratings
1 star 2 stars 3 stars 4 stars 5 stars
comments

Minority Bass Tab

   
Tabbed by: fenderbass1
Standard tuning (E,A,D,G)

Wait for the acoustic guitar to finish the intro

Chorus:
G---------------------------------------------------
D---------------------------------------------------	x2
A----3-3---------------------3-3--------------------
E--------0-1-1-0-3-3-0-1-1-0-----0-1-1-0-3-3-0-1-1-0

Verse:
G------------------------------------------------------------------------
D----2-----3-2-0-------2-----------------2-----3-2-0-------2-0-3-2-------
A---3-0-2-0-----3-2-3-3-0-2-0-------2-3-3-0-2-0-----3-2-3-3-------3-2-2-3
E------3-----------------3---1-0-1-3-------3-------------------------3---

Chorus:
G---------------------------------------------------
D---------------------------------------------------	x2
A----3-3---------------------3-3--------------------
E--------0-1-1-0-3-3-0-1-1-0-----0-1-1-0-3-3-0-1-1-0

Bridge:		* * (let ring)
G-------------------------------------------
D-------------------------------------------
A--0000000-*7*-8888-3333-0000000------------
E--------------------------------0-1111-3333  ....

....Continued
G-------------------------------------------------------
D-------------------------------------------------------
A--0000000-*7*-8888-3333-0000000------------------------
E--------------------------------1-33-111-333-111-333333
[ Tab from: http://www.guitartabs.cc/tabs/g/green_day/minority_btab_ver_7.html ]
Verse:
G----------------------------------------------------------------------
D----2-----3-2-0-------2---------------2-----3-2-0-------2-0-3-2-------
A---3-0-2-0-----3-2-3-3-0-2-0-----2-3-3-0-2-0-----3-2-3-3-------3-2-2-3
E------3-----------------3---1-0-1-3-----3-------------------------3---

Chorus:
G-------------------------------------------------
D-------------------------------------------------	x2
A--3-3---------------------3-3--------------------
E------0-1-1-0-3-3-0-1-1-0-----0-1-1-0-3-3-0-1-1-0

Bridge:	   * * (let ring)
G-------------------------------------------
D-------------------------------------------
A--0000000-*7*-8888-3333-0000000------------
E--------------------------------0-1111-3333  .

.Continued
G-------------------------------------------------------
D-------------------------------------------------------
A--0000000-*7*-8888-3333-0000000------------------------
E--------------------------------1-33-111-333-111-333333

Verse:
G----------------------------------------------------------------------
D----2-----3-2-0-------2---------------2-----3-2-0-------2-0-3-2-------
A---3-0-2-0-----3-2-3-3-0-2-0-----2-3-3-0-2-0-----3-2-3-3-------3-2-2-3
E------3-----------------3---1-0-1-3-----3-------------------------3---

Chorus:
G-------------------------------------------------
D-------------------------------------------------	x2
A--3-3---------------------3-3--------------------
E------0-1-1-0-3-3-0-1-1-0-----0-1-1-0-3-3-0-1-1-0

Acoustic outro
Comments