Green Day - Minority Chords & Tabs

 

Minority Chords & Tabs

Green Day Chords & Tabs

Version: 4 Type: Bass Tab 0 ratings
1 star 2 stars 3 stars 4 stars 5 stars
comments

Minority Bass Tab

Band: Green Day
Song: Minority
Album: Warning 
Tabbed by: Jetplane42
                                        
G:----------------------------------------------
D:----------------------------------------
A:-3-3-3-3----------------------------------
E:----------1-1-1-1--3-3-3-3--1-1-1-1--
 

G:--------------------------------------------
D:---5------3-3--1-0---------5-----------3-3--5----
A:-3-----5-------------3--2--3-----5--3-3----------2-
E:-----3---------------------3------------------

[ Tab from: http://www.guitartabs.cc/tabs/g/green_day/minority_btab_ver_4.html ]
G:-----------------------------------------
D:---5------3-3--1-0--------5--------5--
A:-3-----5-----------3--2--3-----5--3---3-
E:------3------------------------3----------3-
 
 

G:------------------------------------
D:-------------------3-3-3-3----------
A:----------------7-----------3-3-3-3-
E:-5-5-5-5-5-5-5----------------------
 
G:-------------------------------------
D:-------------------3-3-3-3--5-5-5-5-
A:----------------7-------------------
E:-5-5-5-5-5-5-5-----------------
 
G:------------------------------------
D:-------------------3-3-3-3----------
A:----------------7-----------3-3-3-3-
E:-5-5-5-5-5-5-5----------------------
 
G:--------------------------------------------
D:-------------------5-5------5-5---5-5---5---
A:----------------7-------------------------2-
E:-5-5-5-5-5-5-5------------------------------
Comments