Green Day - Maria Chords & Tabs

 

Maria Chords & Tabs

Green Day Chords & Tabs

Version: 4 Type: Tab 0 ratings
1 star 2 stars 3 stars 4 stars 5 stars
comments

Maria Tab

ARTIST: Green Day
SONG:Maria
ALBUM:International Superhits
Email:greenday_rhcp2002@yahoo.co.uk
  
Great Song..Think its 99% accurate..any comments to e-mail..cheers


 Intro
e|-----------------------------------------|
B|-----------------------------------------|
G|-7-7-7-----------------------------------|
D|-7-7-7-7---------------------------------|
A|-5-5-5-7---------------------------------|
E|-------5-5-5-5-5-5-5-5-5-5-5-5-5-5-5-5-5-|

  Pre Chorus
 |-----------------------|
 |-----------------------|
 |-7\6---9-9-9-9-9-9-9-9-|
 |-7\6-7-9-9-9-9-9-9-9-9-|
 |-5\4-7-7-7-7-7-7-7-7-7-|
 |-----5-----------------|


  Chorus
 |-----------------------------------------------------
 |-----------------------------------------------------
 |-7-7-7-7-7-7---------------7-7-7-7-7-7---------------
 |-7-7-7-7-7-7--7-7-7-7-7-7--7-7-7-7-7-7--7-7-7-7-7-7--
 |-5-5-5-5-5-5--7-7-7-7-7-7--5-5-5-5-5-5--7-7-7-7-7-7--
 |--------------5-5-5-5-5-5---------------5-5-5-5-5-5--
[ Tab from: http://www.guitartabs.cc/tabs/g/green_day/maria_tab_ver_4.html ]
  ---------------------------------------------------|
  ---------------------------------------------------|
  -7-7-7-7-7-7---------------9-9-9-9-9-9-9-9-9-9-9-9-|
  -7-7-7-7-7-7--7-7-7-7-7-7--9-9-9-9-9-9-9-9-9-9-9-9-|
  -5-5-5-5-5-5--7-7-7-7-7-7--7-7-7-7-7-7-7-7-7-7-7-7-|
  --------------5-5-5-5-5-5--------------------------|


 Inturlude
 |-----------------|
 |-----------------|
 |--------10-10-10-|
 |-9-9-9---9--9--9-|
 |-9-9-9---7--7--7-|
 |-7-7-7-----------|


  Solo guitar 1(guitar2 plays chorus 2 times in the background of solo)
 |---------------7-7-----7-7------|
 |-7-8-10-7------7-7-----7-7------|
 |-7-7--7----9b-------9b-------9b-|
 |--------------------------------|
 |--------------------------------|
 |--------------------------------| Repeat this part 3 times
 
 |--------5-5-7-5-4-5---------5-5-7-5-4-5-5~-|
 |-7-7-7---------------7-7-7-----------------|
 |-------------------------------------------|
 |-------------------------------------------|
 |-------------------------------------------|
 |-------------------------------------------|


 Outro
 |----------|
 |----------|
 |-7-7-7----|
 |-7-7-7--7-|
 |-5-5-5--7-|
 |- ------5-|

  


Order

Intro      x 4
Pre Chorus x 4
Intro      x 2
Pre Chorus x 3
Chorus     x 1
Inturlude  x 12
Solo       x 2  (Guitar 2 plays chorus x2 in background)
Intro      x 2 
Pre Chorus x 4
Chorus     x 2
Inturlude  x 8
Outro      x 1
Comments