Green Day - Maria Chords & Tabs

 

Maria Chords & Tabs

Green Day Chords & Tabs

Version: 3 Type: Tab 0 ratings
1 star 2 stars 3 stars 4 stars 5 stars
comments

Maria Tab

   
Greenday
Maria
Taken off International Superhits
Tabbed by ToRK
Email at eved05@stdavids.co.za

Chords Used:
   D   A   B
e -------------
B -------------
G -7-----------
D -7---7---9---
A -5---7---9---
E -----5---7---

Intro:
e ---------------------------------------------
B ---------------------------------------------
G -777------------------777--------------------
D -777-7----------------777-7------------------
A -555-7----------------555-7------------------
E -----5-5555555555555------5-55555555555555---

Verse:(This verse is the same rhythm as the intro)
D A
  She smashed the radio with the board of education
D A
  Turn up the static left of the state of the nation

A B
  Turn up the flame, step on the gas
A B
  Burning the flag at half mast
A B
  She’s a rebels forgotten son
A B
  An export of the revolution
[ Tab from: http://www.guitartabs.cc/tabs/g/green_day/maria_tab_ver_3.html ]
D A
  She is the first voice of the last ones in line
D A
  She’ll drag the lake to keep the vendetta alive

A B
  Bring in the head of the government
A B
  The dog ate the document
A B
  Somebody shot the president
A B  
  And no one knows where Maria went?

Chorus: 
   Maria            Maria           Maria
e ---------------------------------------------------
B ---------------------------------------------------
G -7777777---------7777777---------7777777-----------
D -7777777-7777777-7777777-7777777-7777777-7777777---
A -5555555-7777777-5555555-7777777-5555555-7777777---
E ---------5555555---------5555555---------5555555---

  Where did you go? 
e ------------------
B ------------------
G ------------------
D -77-999999999-----
A -77-999999999-----
E -55-777777777-----

Solo:
(X8)
e -------------
B -------------
G -7-----------
D -7-7-9-7----
A -5-7-9-7----
E ---5-7-5—---

What an awesome song!!
Enjoy!

Any corrections or comments can be sent to my email!

Later
ToRK       (eved05@stdavids.co.za)
Comments