Green Day - Macys Day Parade Chords & Tabs

 

Macys Day Parade Chords & Tabs

Green Day Chords & Tabs

Version: 10 Type: Tab 0 ratings
1 star 2 stars 3 stars 4 stars 5 stars
comments

Macys Day Parade Tab

well, i don't have the whole song, but here's the intro, first verse and chorus:

intro:

e/----------------------------------------/
b/----------------------------------------/
g/----4-4-*-4-4-4-*-4-4-4-*-4-4-4-*-------/
d/----4-4-*-4-4-4-*-4-4-4-*-4-4-4-*-------/
a/----2-2-*-2-2-2-*-2-2-2-*-2-2-2-*-------/
e/----------------------------------------/

verse:
e/------------------------------------------------------------------------/
b/------------------------------------------------------------------------/
g/----4-4-4-*-4-4-4-*-4-4-4-*-4-4-4-*-4-6-6-*-6-6-6-*-6-6-6-*-6-6-6-*-----/
d/----4-4-4-*-4-4-4-*-4-4-4-*-4-4-4-*-4-6-6-*-6-6-6-*-6-6-6-*-6-6-6-*-----/
a/----2-2-2-*-2-2-2-*-2-2-2-*-2-2-2-*-2-4-4-*-4-4-4-*-4-4-4-*-4-4-4-*-----/
e/------------------------------------------------------------------------/

e/------------------------------------------------------------------------/
b/------------------------------------------------------------------------/
g/----6-------------------------------------------------------------------/
d/----6-6-6-*-6-6-6-*-6-6-6-*-6-6-6-*-6-2-2-*-2-2-2-*-2-4-4-*-4-4-4-*-----/
a/----4-6-6-*-6-6-6-*-6-6-6-*-6-6-6-*-6-2-2-*-2-2-2-*-2-4-4-*-4-4-4-*-----/
e/------4-4-*-4-4-4-*-4-4-4-*-4-4-4-*-4-0-0-*-0-0-0-8-0-2-2-*-2-2-2-*-----/
[ Tab from: http://www.guitartabs.cc/tabs/g/green_day/macys_day_parade_tab_ver_10.html ]
e/-----------------------------------------/
b/-----------------------------------------/
g/-----4-4-*-4-4-4-*-4-4-4-*-4-4-4-*-------/
d/---4-4-4-*-4-4-4-*-4-4-4-*-4-4-4-*-------/
a/---4-2-2-*-2-2-2-*-2-2-2-*-2-2-2-*-------/
e/---2-------------------------------------/

repeat that until chorus.

then:

e/---------------------------------------------------------------------/
b/---------------------------------------------------------------------/
g/---------------------------------------------------------------------/
d/---2-2-*-2-2-2-*-2-2-2-*-2-2-2-*-2-4-4-*-4-4-4-*-4-4-4-*-4-4-4-*-----/
a/---2-2-*-2-2-2-*-2-2-2-*-2-2-2-*-2-4-4-*-4-4-4-*-4-4-4-*-4-4-4-*-----/
e/---0-0-*-0-0-0-*-0-0-0-*-0-0-0-*-0-2-2-*-2-2-2-*-2-2-2-*-2-2-2-*-----/

e/-----------------------------------------------------------------------/
b/-----------------------------------------------------------------------/
g/-----------------------------------------------------------------------/
d/---4-2-2-*-2-2-2-*-2-2-2-*-2-2-2-*-2-4-4-*-4-4-4-*-4-4-4-*-4-4-4-*-----/
a/---4-2-2-*-2-2-2-*-2-2-2-*-2-2-2-*-2-4-4-*-4-4-4-*-4-4-4-*-4-4-4-*-----/
e/---2-0-0-*-0-0-0-*-0-0-0-*-0-0-0-*-0-2-2-*-2-2-2-*-2-2-2-*-2-2-2-*-----/

e/-----------------------------------------/
b/-----------------------------------------/
g/-----4-4-*-4-4-4-*-4-4-4-*-4-4-4-*-------/
d/---4-4-4-*-4-4-4-*-4-4-4-*-4-4-4-*-------/
a/---4-2-2-*-2-2-2-*-2-2-2-*-2-2-2-*-------/
e/---2-------------------------------------/

well, that's about it.

it's my first tab, so it might suck.

but what are ya gonna do?






Comments