Green Day - Macys Day Parade Chords & Tabs

 

Macys Day Parade Chords & Tabs

Green Day Chords & Tabs

Version: 3 Type: Bass Tab 0 ratings
1 star 2 stars 3 stars 4 stars 5 stars
comments

Macys Day Parade Bass Tab

   
 MACYS DAY PARADE (b-tabs) 
   
    
   I Know that its not 100% correct, 
   but it souns good for me


    Verse 1

   G|-------------------------------------------------------------|
   D|-------------------------------------------------------------|
   A|-------------------------------------------------------------|
   E|--77-7-77-7-77--44-4-44-4--00-0-00-0--22-2-22-2--77-7-77-7-77|

   
    pre-chorus
            
            (x2)  
   G|----------------------------------|
   D|----------------------------------|
   A|--77-7-77-7-77-7--99-9-99-9-99-9--|
   E|----------------------------------|

   
   Verse 2 
              
   G|-------------------------------------------------------------|
   D|-------------------------------------------------------------|
   A|-------------------------------------------------------------|
   E|--77-7-77-7-77--44-4-44-4--00-0-00-0--22-2-22-2--77-7-77-7-77|

   G|-------------------------------------------------------------|
   D|-------------------------------------------------------------|
   A|---------------------------77-7-77-7--99-9-99-9--------------|
   E|--77-7-77-7-77--44-4-44-4------------------------77-7-77-7-77|

    
    Pre-chorus

   G|----------------------------------|
   D|----------------------------------|
   A|--77-7-77-7-77-7--99-9-99-9-99-9--|
   E|----------------------------------|

    chorus

   G|----------------------------------------------|
   D|----------------------------------------------|
   A|----------------------------------------------|
   E|--77-7676--44-4242-00-0-00-0--22-2-22-2-(1-2)-|
                                                       
     Bridge
[ Tab from: http://www.guitartabs.cc/tabs/g/green_day/macys_day_parade_btab_ver_3.html ]
   G|---------------------------------------------------------- |
   D|-----------------------------------------------------------|
   A|-----------------------------------------------------------|
   E|--77-7-77-7-44-4-44-4--00-0-00-0--22-2-22-2--77-7-77-7-77--|

   G|-------------------------------------------------------------|
   D|-------------------------------------------------------------|
   A|---------------------------77-7-77-7--99-9-99-9--------------|
   E|--77-7-77-7-77--44-4-44-4------------------------77-7-77-7-77|

   
    Pre-Chorus 
                  (x2)
   G|----------------------------------|
   D|----------------------------------|
   A|--77-7-77-7-77-7--99-9-99-9-99-9--|
   E|----------------------------------|
 
    chorus

   G|-----------------------------------------|
   D|-----------------------------------------|
   A|-----------------------------------------|
   E|--77-7676--44-4242-00-0-00-0--22-2-22-2--|

   G|--------------------------------------------|
   D|--------------------------------------------|
   A|-------4212---------------------------------|
   E|--77-7-------44-42424--00-0-00-0-22-2-22-2--|

   G|----------------------------------------------|
   D|----------------------------------------------|
   A|----------------------------------------------|
   E|--77-7676--44-4242-00-0-00-0--22-2-22-2-(1-0)-|
   
    Outro 
  
   G|---------------------------------------|
   D|---------------------------------------|
   A|---------------------------------------| ~~~~~With this i mean that you
   E|--77-7-77-7-77-7-77-7-77-77--7~~~~~~~--| just let the tone ring the rest
                                              of the song
   


When you come to the part that is in the () you can either drop it or play it because it is not 100% right!


 D.A.D Řystein


(OMAR_doggie@hotmail.com)
Comments