Green Day - Macys Day Parade Chords & Tabs

 

Macys Day Parade Chords & Tabs

Green Day Chords & Tabs

Version: 2 Type: Bass Tab 0 ratings
1 star 2 stars 3 stars 4 stars 5 stars
comments

Macys Day Parade Bass Tab

   
Tabbed By : connor
e-mail: equal_heights@hotmail.com

good/easy song.the chorus looks strange but im pretty sure its right.
good luck.

Tuning: Standard (EADG)

First verse is guitar only so dont play until the second.

Verse
G|-------------------------------------------------|
D|------------------------4------------------------|
A|---22--2-22--2-22--2-22--------------------------|
E|--------------------------44--4-44--4-44--4-44---|

G|-------------------------------------------------|
D|---22---22--4-44--4-44--4------------------------|
A|-2----2-------------------22--2-22--2-22--2-22---|
E|-------------------------------------------------|

Pre-chorus
G|-------------------------------------------------|
D|--2-22--2-22--2-22--2-22--4-44--4-44--4-44--4-44-|
A|-------------------------------------------------|
E|-------------------------------------------------|
[ Tab from: http://www.guitartabs.cc/tabs/g/green_day/macys_day_parade_btab_ver_2.html ]
Chorus a
G|--5--54-5-4-0-2---0-2-0--------------------------|
D|-----------------3-------3--0-33--3-55--5-55-----|
A|-------------------------------------------------|
E|-------------------------------------------------|

Chorus b
G|--5--57-5-4-0-2---0-2-0---------------0025-------|
D|----------------3------3--0-33--3-55-------------|
A|-------------------------------------------------|
E|-------------------------------------------------|

Post-Chorus
G|-------------------------------------------------|
D|----------------------2-1------------------------|
A|--5-22--2-22--2-22--2----------------------------|
E|-------------------------------------------------|

Order

verse x1
pre-chorus x2
verse x2
pre-chorus x1
chours a x1
post-chorus x1
interlude (verse x2)
pre-chorus x2
chorus a x1
chorus b x1
chorus a x1
post chorus x1
Comments