Green Day - Longview Chords & Tabs

 

Longview Chords & Tabs

Green Day Chords & Tabs

Version: 9 Type: Tab 0 ratings
1 star 2 stars 3 stars 4 stars 5 stars
comments

Longview Tab

----------------------------------------------------------------------------
			      Longview-Green Day                            
----------------------------------------------------------------------------
Tabbed by:Steven A.
Tuning:Eb-Ab-Db-Gb-Bb-eb (I came up with this on my own so dont steal it please)

 This first part starts off w/ the bass(mike) doing this but here it is for guitar....
  Intro:
|--------------------------------|
|--------------------------------|
|--------------------------------|
|--------------------------------|
|--------------------------------|
|--12-/-/-/-/-/-/-/-/-/-/-/-/-0--|
  Palm mute this sliding down


Next the verse is played by the bass guitarist

  Chorus:
|---------------|
|--9-9-9-9-9-9--|
|--9-9-9-9-9-9--|
|--9-9-9-9-9-9--|
|--7-7-7-7-7-7--|
|---------------|

|-----------------------------------|
|--------------------------9-x-9-x--|
|--------------------------9-x-9-x--|
|--9-x-9-x-9-x-9-x-7-x-7-x-9-x-9-x--|
|--9-x-9-x-9-x-9-x-7-x-7-x-7-x-7-x--|
|--7-x-7-x-7-x-7-x-5-x-5-x----------|
 
 Last time
|--------------------------------0--(0)---|
|--------------------------------9-/-10--\|Dont hit the ten just slide to it
|-----------------------------------------|
|--9-x-9-x-9-x-9-x-7-x-7-x-7-x-7----------|
|--9-x-9-x-9-x-9-x-7-x-7-x-7-x-7----------|
|--7-x-7-x-7-x-7-x-5-x-5-x-5-x-5----------|


  Bridge:
|-------------------------------------|
|-------------------------------------|
|--9-9-9-9-9-9-9-9-9-7-7-7-7-7-7-7-7--|
|--9-9-9-9-9-9-9-9-9-7-7-7-7-7-7-7-7--|
|--7-7-7-7-7-7-7-7-7-5-5-5-5-5-5-5-5--|
|-------------------------------------|
[ Tab from: http://www.guitartabs.cc/tabs/g/green_day/longview_tab_ver_9.html ]
|---------------------------------------|
|--------------------------9-9-9-9-9-9--|
|--------------------------9-9-9-9-9-9--|
|--9-x-9-x-9-x-9-x-7-x-7-x-9-9-9-9-9-9--|
|--9-x-9-x-9-x-9-x-7-x-7-x-7-7-7-7-7-7--|
|--7-x-7-x-7-x-7-x-5-x-5-x--------------|
 
 Last time
|---------------------------------0--(0)---|
|---------------------------------9-/-10--\|
|------------------------------------------|
|--9-x-9-x-9-9-9-x-7-x-7-x-7-7-7-----------|
|--9-x-9-x-9-9-9-x-7-x-7-x-7-7-7-----------|
|--7-x-7-x-7-7-7-x-5-x-5-x-5-5-5-----------|

 Chorus:
|-------------------------------------------------------|
|--9-9-9-9-9-9--9-9-9-9-9-9--9-9-9--9-9-9--9-9-9--7-7-7--|
|--9-9-9-9-9-9--9-9-9-9-9-9--9-9-9--9-9-9--9-9-9--7-7-7--|
|--9-9-9-9-9-9--9-9-9-9-9-9--9-9-9--9-9-9--9-9-9--7-7-7--|
|--7-7-7-7-7-7--7-7-7-7-7-7--7-7-7--7-7-7--7-7-7--5-5-5--|
|-------------------------------------------------------|

|-----------------------------------|
|--------------------------9-x-9-x--|
|--------------------------9-x-9-x--|
|--9-x-9-x-9-x-9-x-7-x-7-x-9-x-9-x--|
|--9-x-9-x-9-x-9-x-7-x-7-x-7-x-7-x--|
|--7-x-7-x-7-x-7-x-5-x-5-x----------|
 
 Last time
|--------------------------------0--(0)---|
|--------------------------------9-/-10--\|Dont hit the ten just slide to it
|-----------------------------------------|
|--9-x-9-x-9-x-9-x-7-x-7-x-7-x-7----------|
|--9-x-9-x-9-x-9-x-7-x-7-x-7-x-7----------|
|--7-x-7-x-7-x-7-x-5-x-5-x-5-x-5----------|

 Outro: This sounds pretty good and i think i finally got it right.
|--0--(0)-0--0--(0)-----0--(0)----12--(12)--|
|--9-h-10-10-9--(9)--\--9-h-10-11-----------|
|-------------------------------------------|
|-------------------------------------------|
|-------------------------------------------|
|-------------------------------------------|Dont forget to vote!!
Comments