Green Day - Longview Chords & Tabs

 

Longview Chords & Tabs

Green Day Chords & Tabs

Version: 5 Type: Tab 0 ratings
1 star 2 stars 3 stars 4 stars 5 stars
comments

Longview Tab

start at: And I'm fukin lazy 
e--------------------------------------------|--------------------------------|
b-7-7-7-7-7-7-7-7-7-7-7----------------------|----------9-9-9-----------------|
g-7-7-7-7-7-7-7-7-7-7-7----------------------|----------9-9-9-----------------|
d-7-7-7-7-7-7-7-7-7-7-7--9-9--7-9-7-9-7-9-7--|-7-5-7-5--7-7-7--9-7-9-7-9-7-9--|
a-5-5-5-5-5-5-5-5-5-5-5--9-9--7-9-7-9-7-9-7--|-7-5-7-5---------9-7-9-7-9-7-9--|
E------------------------7-7--7-7-7-7-7-7-7--|-5-5-5-5---------7-7-7-7-7-7-7--|
  take me away to...

---|-------------------------|---------------------------------|--------------|
---|-------------------------|---------------------------------|--------------|
---|------------9--9--9------|-----------------------9-9-9-----|--------------|
-7-|--7-5-7-5---9--9--9--9---|--9-7-9-7-9-7-9-7-7-5--9-9-9--9--|--9-7-9-7-9---|
-7-|--7-5-7-5---7--7--7--9---|--9-7-9-7-9-7-9-7-7-5--7-7-7--9--|--9-7-9-7-9---|
-7-|--5-5-5-5------------7---|--7-7-7-7-7-7-7-7-5-5---------7--|--7-7-7-7-7---|
            im going blind....

--------|---------------------|-------------------|---------------------------|
--------|---------------------|-------------------|-----------------8/--------|
--------|-----------9-9-9-----|-------------------|-----------------8/--------|
-7-9-7--|--7-5-7-5--9-9-9--9--|--9-7-9-7-9-7-9-9--|-7-7-7-7-7-7-7---6/--------|
-7-9-7--|--7-5-7-5--7-7-7--9--|--9-7-9-7-9-7-9-7--|-7-7-7-7-7-7-7-------------|
-7-7-7--|--5-5-5-5---------7--|--7-7-7-7-7-7-7-7--|-5-5-5-5-5-5-5-------------|
          i got no motivation, where is my motivation...
[ Tab from: http://www.guitartabs.cc/tabs/g/green_day/longview_tab_ver_5.html ]
--------------------------------|-----------------------------|----------------|
---9---9---9---9---9---9---97--|--7---7---7---7---7---7---7/9|-----------------|
---9---9---9---9---9---9---97--|--7---7---7---7---7---7---7/9|-----------------|
---9---9---9---9---9---9---97--|--7---7---7---7---7---7---7/9|-----------------|
---7---7---7---7---7---7---75--|--5---5---5---5---5---5---5/7|-----------------|
--------------------------------|-----------------------------|----------------|
       smoking my inspiration...   repeat x2

-------------------|------------------------|---------------------------------|
-------------------|----------9-9-9-9-9-9---|---------------------------------|
-------------------|----------9-9-9-9-9-9---|---------------------------------|
--9-7-9-7-9-7-9-7--|-7-5-7-5--7-7-7-7-7-7---|---------------------------------|
--9-7-9-7-9-7-9-7--|-7-5-7-5----------------|---------------------------------|
--7-7-7-7-7-7-7-7--|-5-5-5-5----------------|---------------------------------|
           bite my lip and close my eyes...

---------------------------|-------------------|-----------------------|-|----|
---------------------------|-------------------|-----------------------|-|----|
--9-9-9-9-9-9-9-9-9--------|-------------------|-----------9-9-9-9-----|-|----|
--9-9-9-9-9-9-9-9-9--7-7-7-|--9-7-9-7-9-7-9-9--|--7-5-7-5--9-9-9-9--9--|-|----|
--7-7-7-7-7-7-7-7-7--7-7-7-|--9-7-9-7-9-7-9-9--|--7-5-7-5--7-7-7-7--9--|-|----|
---------------------5-5-5-|--7-7-7-7-7-7-7-7--|--5-5-5-5-----------7--|-|----|


Havent tabbed the solo thing at the end, sorry. I might get around to it
Comments