Green Day - Longview Chords & Tabs

 

Longview Chords & Tabs

Green Day Chords & Tabs

Version: 4 Type: Tab 0 ratings
1 star 2 stars 3 stars 4 stars 5 stars
comments

Longview Tab

   
Theres a slide at the beginning that you fingerpick
e|--------------------------------------------------------|
B|--------------------------------------------------------|
G|--------------------------------------------------------|
D|--------------------------------------------------------|
A|--------------------------------------------------------|
E|----12--------slide--to-----1--------------------------|

Main Verse: The bass part on the guitar is: Repeat a lot
e|---------------------------------------------------------|
B|---------------------------------------------------------|
G|---------------------------------------------------------|
D|------9-7-6--------7-6-4--------9-7-6--------------------|
A|----------------5------------7---------5slide7---5-4-5---|
E|---0---------0-------------0-----------------------------|
[ Tab from: http://www.guitartabs.cc/tabs/g/green_day/longview_tab_ver_4.html ]
Now play a D which is  e--2-----   Strum this up and down
                       B--3-----      Many Times and Fast
                       G--2-----
                       D--------
                       A--------
                       E--------
     Now youre gonna play  what i guess is the Main Chorus
where its like "Bite my lip" After you hit this once
dont press hard on the strings and hit it again
e|---------------------------------------------------------|
B|---------------------------------------------------------|
G|---------------------------------------------------------|
D|------9-Hit it bArely-9----Repeat this 8 times-----------|
A|------9---------------9----------------------------------|
E|------7---------------7----------------------------------

Now do the same thing except on 8 times every other time barely pressing the strings
e|--------------------------------------------------------|
B|--------------------------------------------------------|
G|--------------------------------------------------------|
D|------7--------------------------------------------------|
A|------7--------------------------------------------------|
E|------5--------------------------------------------------|

Now Repeat that a couple of times then hit ---------------
                     This is an E          ---------------
                                           ------9---------
                                           ------9---------
                                           ------7---------
                                           --0-------------
Then repeat the bass intro that i have at the beginnig
Now the part about Motivation is HittinG ----------------
                    rEPEATEDLY           ----------------
                   BUT NOT FAST          ----------------
       9             7                     --9-----7-------
       9             7                     --9-----7----
   THE 7 IS AN e THE 5 IS D                --7-----5-------
nOW YOU HIT B A  REPEAT THEN B A D
tHATS IT
 

cHORDS
d--2---------   B-----     A-----
 --3---------    ------     -----
 --2------9---   ------     ----- 
 -----OR--9--    --9----    --7---
 ---------7---   --9----    --7---
 ------------    --7----    --5--- 



tABBED BY MATT ANY Q's EMAIL ME AT mattr11487@hotmail.com
Comments