Green Day - Longview Chords & Tabs

 

Longview Chords & Tabs

Green Day Chords & Tabs

Version: 2 Type: Tab 7 ratings
1 star 2 stars 3 stars 4 stars 5 stars
comments

Longview Tab

Green Day
Longview
Dookie
Tune down a half step
Tabbed by Brandon

All of the other tabs on this site are wrong. I am positive this is correct.


Pre Chorus
e---------------------------------------------------------------------
b----7-7-7-7-7-7-7-7--------------------------------------------------
g----7-7-7-7-7-7-7-7--------------------------------------------------
d----7-7-7-7-7-7-7-7--------------------------------------------------
a----5-5-5-5-5-5-5-5--------------------------------------------------
E---------------------------------------------------------------------
              Rapidly^ up down pattern
[ Tab from: http://www.guitartabs.cc/tabs/g/green_day/longview_tab_ver_2.html ]
Chorus
e--------------------------------------|------------------------------
b--------------------------------------|------------------------------
g-----------------------------9-9-9----|------------------------------
d--9-7-9-7-9-7-9----7-5-7-5---9-9-9----|-9-7-9-7-9-7-9----7-7-7-7-7-7-
a--9-7-9-7-9-7-9----7-5-7-5---7-7-7----|-9-7-9-7-9-7-9----7-7-7-7-7-7---
E--7-7-7-7-7-7-7----5-5-5-5------------|-7-7-7-7-7-7-7----5-5-5-5-5-5----
            repeat 3x                    on 4th time play this
e---------------------------------------------------------------------
b---------------------------------------------------------------------
g---9----------------------------------------------------------------
d---9----------------------------------------------------------------
a---7----------------------------------------------------------------
E---------------------------------------------------------------------
end on this and slide down

Bridge
e---------------------------------------------------------------------
b---------------------------------------------------------------------
g---9-9-9-9-9-9-9------------7-7-7-7-7-7------------------------------
d---9-9-9-9-9-9-9------------7-7-7-7-7-7------------------------------
a---7-7-7-7-7-7-7------------5-5-5-5-5-5--------------------------------
E---------------------------------------------------------------------

after bridge just play the chorus

Outro
e----------------------------12---------------------------------------
b----9-10-10-7----7-9-10--12------------------------------------------
g----9--9-9--7----7-9-9-----------------------------------------------
d---------------------------------------------------------------------
a---------------------------------------------------------------------
E---------------------------------------------------------------------

Any comments e mail me at BP125KX@aol.com 
This is mostly played in an up down pattern and tuned down a half step.
Im not sure if the number of times I put the chord on there is the
number of times you play it but you can figure it out. Pretty easy.
Comments