Green Day - Longview Chords & Tabs

 

Longview Chords & Tabs

Green Day Chords & Tabs

Version: 11 Type: Tab 0 ratings
1 star 2 stars 3 stars 4 stars 5 stars
comments

Longview Tab

   
Artist: Green Day
Song: Longview
Album: Dookie
Tabbed by: saad_aslam
e-mail: psyche3991@sbcglobal.net
Tuning: eBGDAE

                               PLEASE RATE!!
============================================================================
Verse: That's a bass line

Pre-chorus:
    D#5
e|----------------------------------------------------------|
B|----------------------------------------------------------|
G|--8-8-8-8-8-8-8-8-----------------------------------------|
D|--8-8-8-8-8-8-8-8-----------------------------------------|
A|--6-6-6-6-6-6-6-6-----------------------------------------|
E|----------------------------------------------------------|
[ Tab from: http://www.guitartabs.cc/tabs/g/green_day/longview_tab_ver_11.html ]
Chorus:
  A#5              G#5     D#5
e|----------------------------------------------------------|
B|----------------------------------------------------------|
G|-------------------------8-8-8-8--------------------------|
D|-8-8-8-8-8-8-8-8-6-6-6-6-8-8-8-8--------------------------|  X2
A|-8-8-8-8-8-8-8-8-6-6-6-6-6-6-6-6--------------------------|
E|-6-6-6-6-6-6-6-6-4-4-4-4----------------------------------|
   This is the ending part of the chorus:
   A#5             G#5
e|----------------------------------------------------------|
B|----------------------------------------------------------|
G|----------------------------------------------------------|
D|-8-8-8-8-8-8-8-8-6-6-6-6----------------------------------|
A|-8-8-8-8-8-8-8-8-6-6-6-6----------------------------------|
E|-6-6-6-6-6-6-6-6-4-4-4-4----------------------------------|
     (After Armstrong says, "I smell like Shit!" play this):
    D#5
e|----------------------------------------------------------|
B|----------------------------------------------------------|
G|-8-8-8-8--------------------------------------------------|
D|-8-8-8-8--------------------------------------------------|
A|-6-6-6-6--------------------------------------------------|
E|----------------------------------------------------------|

Outro/Solo/Whatever you wanna call it:

e|-------------------------11----------------------11--------|
B|-6/8----8-8-9------8-8-9--------8-9-11-----8-8-9-----------|
G|--------------10-----------------------10------------------|
D|-----------------------------------------------------------|
A|-----------------------------------------------------------|
E|-----------------------------------------------------------|

e|---------------------11---------------------11-------------|
B|-8-8-9--------8-9-11-------8-8-9------8-8-9------8-8-9-----|
G|-------10---8---------------------10-----------------------|
D|--------------------------------------------------------11-|
A|-----------------------------------------------------------|
E|-----------------------------------------------------------|

e|--------11-------------------------------------------------|
B|-8-9-11------8-8-9-----------------------------------------|
G|-----------------------------------------------------------|
D|-------------------11--------------------------------------|
A|-----------------------------------------------------------|
E|-----------------------------------------------------------|

============================================================================
 This is an easy song and its good if your a beginner.
h= hammer on
p= pull off
/ or \= slide up or down
~= vibrato
+= harmonic
X= Mute note
b= Bend
============================================================================
Comments