Green Day - Longview Chords & Tabs

 

Longview Chords & Tabs

Green Day Chords & Tabs

Version: 10 Type: Tab 0 ratings
1 star 2 stars 3 stars 4 stars 5 stars
comments

Longview Tab

here are the tabs to Longview. these are 100% right. the others are pretty close but 
are correct. and the bass line at the bottom, is also 100% correct. thought i just throw 
in. heh. RATE THIS PLEASE!!!

Band>Green Day
Song>Longview
Tuning>Standard

(play at the end of bass line)
e|-----------|
B|-----------|
G|-8-6-5-6---|
D|-----------|
A|-----------|
E|-----------|


e|--------------------------------------------------------|
B|--------------------------------------------after 4X----|
G|-6------------------------------6h8-6h8-----let last----|
D|-6----6h8-6h8-6h8-6h8--4h6-4h6--6h8-6h8-4X--part ring---|
A|-4----6h8-6h8-6h8-6h8--4h6-4h6--6-6-6-6-----for a bit---|
E|------6-6-6-6-6-6-6-6--4-4-4-4--------------------------|





e|-------------------|
B|-------------------|
G|-------------------|
D|-6-6-6-6--8-8-8-8--| 4X
A|-6-6-6-6--8-8-8-8--|
E|-4-4-4-4--6-6-6-6--|



(extend the begining of it a little bit this time)

[ Tab from: http://www.guitartabs.cc/tabs/g/green_day/longview_tab_ver_10.html ]
e|--------------|--------11-------|
B|-8-9-9-6~~~\--|--8-9-11---------|
G|--------------|-----------------|
D|--------------|-----------------|
A|--------------|-----------------|
E|--------------|-----------------|

after repeating the (above) 2X, play this part     (every 2X)
e|--------------|-----------11----|
B|-8-9-9-6~~~\--|--6/-8-9-11------|
G|--------------|-----------------|
D|--------------|-----------------|
A|--------------|-----------------|
E|--------------|-----------------|



here is the bass line like i promised....

e|-------------------------------------------------------|
B|-------------------------------------------------------|
G|--------------------------------------9-7-6-7----------|
D|-----------9-7-6-----76---------9-7-6------------------|
A|-12\3--5h7-------7p5---5----9p7------------------------|
E|-------------------------------------------------------|

and if you want the chorus part for the bass, here it is to....

e|----------------------------------|
B|----------------------------------|
G|----------------------------------|
D|----------------------------------|4X
A|-------------------------0h7-0h7--|
E|-0h7-0h7-0h7-0h7-0h5-0h5----------|

well, that's about all i know from the bass. it's pretty easy so i think you'll get in 
a day or 2.

Enjoy

RATE PLEASE!!!!
Comments