Green Day - Longview Chords & Tabs

 

Longview Chords & Tabs

Green Day Chords & Tabs

Version: 5 Type: Bass Tab 0 ratings
1 star 2 stars 3 stars 4 stars 5 stars
comments

Longview Bass Tab

   
Intro

e|-------
a|-------
d|2------
g|-4-2-1-

e|----------
a|----------
d|0----0-4-2
g|-2-1------

e|-------------
a|-------------
a|-------------
g|4-2-1-9-7-6-7


(play many times)
[ Tab from: http://www.guitartabs.cc/tabs/g/green_day/longview_btab_ver_5.html ]
chorus

e|---------------
a|2-2-2-0-0-0----
d|------------2-2
g|---------------

i dunno wht this is called, but it is in the song

e|------------------
a|-----2-----4--2--0
d|2--2--2--0--------
g|------------------
Comments