Green Day - Longview Chords & Tabs

 

Longview Chords & Tabs

Green Day Chords & Tabs

Version: 4 Type: Bass Tab 0 ratings
1 star 2 stars 3 stars 4 stars 5 stars
comments

Longview Bass Tab

This was originally played on a 4-string tuned down 1/2 step, but I transcribed it for a 5-string.

G|------------------|----------------------|-------------------|
D|-13\\\\\\\\\\-----|----------------------|-------------------|
A|--------------X---|------13---11---10----|-----11---10-----8-|
E|------------------|-11----------------11-|-9-------------9---|
B|----------------9-|----------------------|-------------------|
[ Tab from: http://www.guitartabs.cc/tabs/g/green_day/longview_btab_ver_4.html ]
G|---------------------|-8------------------|----------------------|
D|---------------------|-----11---10---11---|----------------------|
A|------13---11---10---|--------------------|------13---11---10----|
E|-11------------------|-9---9----9----9--9-|-11----------------11-|
B|---------------------|--------------------|----------------------|

G|-------------------|---------------------|-8------------------|
D|-------------------|---------------------|-----11---10---11---|
A|-----11---10-----9-|------13---11---10---|--------------------|
E|-9-------------9---|-11------------------|-9---9----9----9----|
B|-------------------|---------------------|--------------------|
Comments