Green Day - Longview Chords & Tabs

 

Longview Chords & Tabs

Green Day Chords & Tabs

Version: 3 Type: Bass Tab 0 ratings
1 star 2 stars 3 stars 4 stars 5 stars
comments

Longview Bass Tab

Tune down a half step
x=mute;h=hammer on;\=slide down

INTRO/VERSE

G------------------------------9-7-6-7
D-----9-7-6-----7-6-------9-7-6-------
A-0h7-------0h5-----7-9-7-------------
E-------------------------------------

CHORUS
[ Tab from: http://www.guitartabs.cc/tabs/g/green_day/longview_btab_ver_3.html ]
G---------------------
D---------------------
A-----------------7X7X REPEAT        
E-7X7X7X7X\\\5X5X-----

AFTER CHORUS THERES THIS LITTLE PART THAT GOES

G------9-9-----9-----7-6-4-2
D----------7h9---7-7-0-0-0-0
A-7-7-----------------------
E---------------------------

OUTRO

G----------------
D---9-7-6--------
A-7-------5-4-2-0
E----------------
Comments