Green Day - Longview Chords & Tabs

 

Longview Chords & Tabs

Green Day Chords & Tabs

Version: 2 Type: Bass Tab 2 ratings
1 star 2 stars 3 stars 4 stars 5 stars
comments

Longview Bass Tab

   
Longview
Artist: Green Day
Album: Dookie/International Superhits
Tab By: atawb 
Tuning:(Eb Ab Db Gb) half a step down

x= Mute
/= Slide
h= Hammer on

Intro (/ While picking up and down and muteing)
Gb|--------|
Db|--------|
Ab|--17/7--|
Eb|--------|

Verse                                 Ending 1 
Gb|----------------------------------|-----9-7-6-7--|
Db|------9-6-7-----7-6--------9-6-6--|--0--0-0-0-0--|
Ab|--0h7-------0h5-----5--0h7--------|--------------|
Eb|----------------------------------|--------------|
[ Tab from: http://www.guitartabs.cc/tabs/g/green_day/longview_btab_ver_2.html ]
Chorus	                              x4    Ending 1 x3   Ending 2 x1
Gb|----------------------------------------|-------------|---------------|
Db|----------------------------------------|-------------|---------------|
Ab|----------------------------------------|--7--7-7-7-7-|---------------|
Eb|--7-x-x-7-x-x-7-x-x-7-x-x--5-x-x-5-x-x--|-------------|--5-x-x-5-x-x--|

Pre Verse                              
Gb|------9-----9------7-6-4-2--|
Db|--------7h9---9-0--0-0-0-0--|
Ab|--0h7-----------------------|
Eb|----------------------------|

Bridge
Gb|-------------------|
Db|----9-6-7----------|
Ab|--7-------5-4-2-0--|x4
Eb|-------------------|


Intro      
Verse (x6 Ending 1 x5)
Chorus 
Pre Verse x2
Verse (x4 Ending 1 x3)
Chorus 
Bridge
Chorus
Pre Verse x6
Verse (x2 Ending 1 x1)
Chorus x2
Pre Verse x9 (Starts fadeing away atfter 7th time)
Comments