Green Day - Longview Chords & Tabs

 

Longview Chords & Tabs

Green Day Chords & Tabs

Version: 13 Type: Bass Tab 0 ratings
1 star 2 stars 3 stars 4 stars 5 stars
comments

Longview Bass Tab

   
Song: Longview
Band: Green Day
Tuning: E A D G
Tabbed By: Skatefanatic819

G|------|
D|------|
A|------| Slide this while double stroking
E|-17/7-|

Verse Part 1
G|----------------------------------8-6-5-6--|
D|-----8-6-5------6-5--------8-6-5-----------|
A|-4/6--------6/4-----4-8/6-----------------|
E|-------------------------------------------|

Verse Part 2
G|-----8---8---6-5-----|
D|-------6---6-----8-6-|
A|-0h6-----------------|
E|---------------------|

Bridge ("I've got no motivation...")
G|---------------------|
D|-----8-6-5-----------|
A|-0h6-------0h4-3-1---|
E|-------------------3-|

Chorus Intro
G|------------|
D|------------|
A|------------|
E|-9999999999-|
[ Tab from: http://www.guitartabs.cc/tabs/g/green_day/longview_btab_ver_13.html ]
Chorus (odd Double-stoking pattern, ends up like this if not double-stroked) 
   PART 1                      PART 2 (THIS PART ON 4TH TIME)
G|-------------------------|  |-------------------------|
D|-------------------------|  |-------------------------|
A|-------------------66-66-|  |-------------------------|
E|-66-66-66-6644-44-------|  |-66-66-66-66-44-44-44-44-|

Sequence Breakdown

Intro (slide)  1x
Verse part 1   6x
Chorus Intro   1x
Chorus part 1  3x
Chorus part 2  1x
Verse part 2   2x
Verse part 1   4x
Chorus intro   1x
Chorus part 1  3x
Chorus part 2  1x
Bridge         4x
Chorus part 1  3x
Chorus part 2  1x
Verse part 2  6x
Verse part 1  2x
Chorus Intro  2x                           G|------------|
Chorus part 1 8x                           D|-----8---8~-|
Chorus part 2 1x                           A|-0h6---6----|
Verse part 2  10x last time only play this E|------------|
Comments