Green Day - Longview Chords & Tabs

 

Longview Chords & Tabs

Green Day Chords & Tabs

Version: 12 Type: Bass Tab 0 ratings
1 star 2 stars 3 stars 4 stars 5 stars
comments

Longview Bass Tab

Green Day Longview bass tab
From the album Dookie and Insomniac
Tracks: 4 and 3
Tabbed by Liam
Email: guitar_rocker_47@hotmail.com   

Verse
G|---------------------------------------9-7-6-7-----------------------|
D|------9-7-6-------7--6----------9-7-6--0-0-0-0-----------------------|
A|-5h7---------7p5-------5---9p7---------------------------------------|
E|---------------------------------------------------------------------|

Pre Chorus
G|---------------------------------------------------------------------|
D|------9-7-6-------7--6----------9-7-6--------------------------------|
A|-5h7---------7p5-------5---9p7---------------------------------------|
E|---------------------------------------5-5-5-5-5-5-5-5-5-5-5-5-------|

Chorus
G|---------------------------------------------------------------------|
D|---------------------------------------------------------------------|
A|--------------------------7-7-7-7----------------------------7-7-7-7-|
E|-7-7-7-7-7-7-7-7--5-5-5-5----------7-7-7-7-7-7-7-7--5-5-5-5----------|

G|---------------------------------------------------------------------|
D|---------------------------------------------------------------------|
A|--------------------------7-7-7-7------------------------------------|
E|-7-7-7-7-7-7-7-7--5-5-5-5----------7-7-7-7-7-7-7-7--5-5-5-5-5-5-5-5--| 
[ Tab from: http://www.guitartabs.cc/tabs/g/green_day/longview_btab_ver_12.html ]
Fill 1
G|------7---------9----7--6-------|------7---------9----7--6-----------|
D|---------7--7h9---9--------9--7-|---------7--7h9---9--------9--7-----|
A|-9p7----------------------------|-9p7--------------------------------|
E|--------------------------------|------------------------------------|

Bridge ('ive got no motivation')
G|----------------------------------|----------------------------------|
D|----------------------------------|----------------------------------|
A|-7-7-7-7-7-7-7-7--5-5-5-5-5-5-5-5-|-7-7-7-7-7-7-7-7--5-5-5-5-5-5-5-5-|
E|----------------------------------|----------------------------------|

G|----------------------------------|----------------------------------|
D|----------------------------------|----------------------------------|
A|-7-7-7-7-7-7-7-7--5-5-5-5-5-5-5-5-|-7-7-7-7-7-7-7-7--5-5-5-5-5-5-5-5-|
E|----------------------------------|----------------------------------|

Pre Chorus 2
G|---------------------------------------------------------------------|
D|-----9-7-6------7-6--------9-7-6-------------------------------------|
A|-5h7--------7p5-----5--9p7-------------------------------------------|
E|-----------------------------------5-5-5-5-5-5-5-5-5-5-5-5-5-5-5-5-5-|

Order

Verse x5
Pre Chorus
Chorus
Fill 1
Verse x3
Pre Chorus
Chorus
Bridge
Chorus
Fill 1 x4
Verse
Pre Chorus 2
Chorus x2
Fill1 x6
Comments