Green Day - Longview Chords & Tabs

 

Longview Chords & Tabs

Green Day Chords & Tabs

Version: 11 Type: Bass Tab 0 ratings
1 star 2 stars 3 stars 4 stars 5 stars
comments

Longview Bass Tab

main riff

g|---------------------------------7/9-7-6-7
d|----9-7-6------7-5---4---9-7-6--0/0-------
a|--7-------9--5-----5---7------------------
e|------------------------------------------


chorus
[ Tab from: http://www.guitartabs.cc/tabs/g/green_day/longview_btab_ver_11.html ]
g|---------------------------------
d|---------------------------------
a|--------------------------7-7-7-7
e|-7-7-7-7-7-7-7-7-5-5-5-5---------

on the chorus do each note in a sort
of sloppy eigth note(1 + 2 + 3 + 4 +)
the five and seven each are 1 half of
an entire eigth note.

song structure
main riff 6x
chorus 4x
main riff 6x
chorus 16x
main riff 8x
chorus 8x
main riff/outro 6x and fades out
Comments