Green Day - Longview Chords & Tabs

 

Longview Chords & Tabs

Green Day Chords & Tabs

Version: 10 Type: Bass Tab 0 ratings
1 star 2 stars 3 stars 4 stars 5 stars
comments

Longview Bass Tab

   
Tabbed by: fenderbass1
Standard Tuning (E,A,D,G) 

Palm mute the intro from fret 14 to fret 7 on string D

Intro:
G-----------------------------------------
D----14-----------------------------------
A-----------------------------------------
E-----------------------------------------

Verse:
G----------------------------------8-6-5-6
D--------8-6-5-----6-5-------8-6-5-0-0-0-0        x4
A----6-6-------4-4-----4-8-6--------------
E-----------------------------------------

Bridge:
G-------------------
D-------------------
A----444-444-444-444
E-------------------

Chorus:
G-------------------------
D-------------------------         x4
A----------------6-6-6-6-0
E----6-6-6-6-4-4----------
[ Tab from: http://www.guitartabs.cc/tabs/g/green_day/longview_btab_ver_10.html ]
Post Chorus:
G--------8---------8--6-5----
D--------------8-8--------8-6	   x2
A----6-6---6-6---------------
E----------------------------

Repeat verse
Repeat bridge
Repeat chorus
Repeat post chorus

Last verse:
G--------8---------8--6-5----
D--------------8-8--------8-6    Repeat until Billie Joe says
A----6-6---6-6---------------	"Call me pathetic, call me what you will"
E----------------------------

Then play the original verse riff

G----------------------------------8-6-5-6
D--------8-6-5-----6-5-------8-6-5-0-0-0-0        x2
A----6-6-------4-4-----4-8-6--------------
E-----------------------------------------

Bridge:
G-----------------------------
D-----------------------------
A----444-444-444-444-444-444--
E----------------------------4

Repeat chorus
Repeat post chorus till the end
Comments