Green Day - Letterbomb Chords & Tabs

 

Letterbomb Chords & Tabs

Green Day Chords & Tabs

Version: 1 Type: Bass Tab 0 ratings
1 star 2 stars 3 stars 4 stars 5 stars
comments

Letterbomb Bass Tab

   
-----------------------------------------------------------------------------
			 Letterbomb - Green Day
-----------------------------------------------------------------------------

Tabbed By : gr33n_dayw49
e-mail: gr33n_dayw49@hotmail.com

Tuning: Standard (EADG)
  Intro
G|--------------------------------------------------------------------------|
D|------------------6666666666666666-----------------7777777777777777-------|
A|/7777777777777777------------------7777777777777777-----------------------|
E|--------------------------------------------------------------------------|
  
G|---------------------------------------------------------------------|
D|---------------------------------------------------------------------|
A|-----------------------------------4-4-4-44-44-4444------------------|
E|-0-0-0-00-00-0000-4-4-4-44-44-4444------------------5-5-5-55-55-5555-|
   (where have all the bastards gone?.....)
G|-----------------------------------------------------------------|
D|-----------------------------------------------------------------|
A|-----------------------------------------------------------------|
E|-0-0000000000000000--5-5-5-55-55-5555-2-2-2222-5-55555-000-00-00-|
PM   ............
G|-----------------------------------------------------------------------|
D|-----------------------------------------------------------------------|
A|----------44444444----------44444444-----------------------------------|
E|-44444444----------44444444----------55555555-22222222/7-777-5/6/7-777-|
   (where have all the riots gone...?)
G|-----------------------------------------------------------------|
D|-----------------------------------------------------------------|
A|-----------------------------------------------------------------|
E|-0-0000000000000000--5-5-5-55-55-5555-2-2-2222-5-55555-000-00-00-|
PM   ............
G|-----------------------------------------------------------------------|
D|-----------------------------------------------------------------------|
A|----------44444444----------44444444-----------------------------------|
E|-44444444----------44444444----------55555555-22222222/7-777-5/6/7-777-|
[ Tab from: http://www.guitartabs.cc/tabs/g/green_day/letterbomb_btab.html ]
G|----------------------|
D|----------------------|
A|----------------------|
E|-5/6/7-777-5/6/7-777--|
  (The television's an obstructionist...)
G|-----------------------------------------------------|
D|-----------------------------------------------------|
A|-----------------------------------------------------|
E|-5555555-4/5-5555555-4/7-7777777-5/7-7777-5/7-77-5/7-|
  (It's not over until youre underground.....)
G|-----------------------------------------------------------------------|
D|-----------------------------------------------------------------------|
A|-77777777---------------------------77777777---------------------------|
E|----------77777777-5555555555555555----------77777777-5555555555555555-|

G|--------------------------------------------------------------------------|
D|--------------------------------------------------------------------------|
A|-77777777---------------------------77777777------------------------------|
E|----------77777777-5555555555558888----------77777777-5555555555555555-2-5|
   ~Fill~
G|--------------------------------------------------------------------------|
D|------------------6666666666666666-----------------7777777777777777-------|
A|/7777777777777777------------------7777777777777777-----------------------|
E|--------------------------------------------------------------------------|

G|---------------------------------------------------------------------|\
D|---------------------------------------------------------------------| \   
A|-----------------------------------4-4-4-44-44-4444------------------| /x2
E|-0-0-0-00-00-0000-4-4-4-44-44-4444------------------5-5-5-55-55-5555-|/
  (your not the Jesus Of Suburbia)
G|-------------------------------------------------------------|
D|-------------------------------------------------------------|
A|-------------------------------------------------------------|
E|-5/7-77777777-5/7-7777777-4/5-555555555--4/7-7777-5/7-77-5/7-|

  (It's not over until youre underground.....)
G|-----------------------------------------------------------------------|
D|-----------------------------------------------------------------------|
A|-77777777---------------------------77777777---------------------------|
E|----------77777777-5555555555555555----------77777777-5555555555555555-|

G|-----------------------------------------------------------------------|
D|-----------------------------------------------------------------------|
A|-77777777---------------------------77777777---------------------------|
E|----------77777777-5555555555558888----------77777777-5555555555555555-|
  
 (She said I can't take this place, I'm leaving it behind...) x2
G|---------------------------------------------------------------------|
D|---------------------------------------------------------------------|  
A|-----------------------------------4-4-4-44-44-4444------------------|
E|-0-0-0-00-00-0000-4-4-4-44-44-4444------------------5-5-5-55-55-5555-|
  Outro
G|--------------------------------------------------|
D|--------------------------------------------------|
A|--------------------------------------------------|
E|-0~-----00------0~-----00------0~-----00-----0~~~~|


| /  slide up
| \  slide down
| h  hammer-on
| p  pull-off
| ~  vibrato
| +  harmonic
| x  Mute note
=============================================================================
Comments