Green Day - Lazy Bones Chords & Tabs

 

Lazy Bones Chords & Tabs

Green Day Chords & Tabs

Version: 1 Type: Tab 0 ratings
1 star 2 stars 3 stars 4 stars 5 stars
comments

Lazy Bones Tab

   
GREEN DAY
DOS!
LAZY BONES

UPDATE ON 7/11/12. HALF OF SONG TO FULL SONG.! 
PREVIOUS NOTES AND CHORUSES HAVE NOT BEEN CHANGED.

STANDARD, SAYS I
and this is how i do it:


INTRO IS DRUMS

INTRO+ 1ST VERSE 0:05 (half clean)
e|--9---------><(mute)---11---------X(mute)--------|
B|--10--------14---------12---------9--------------|
G|--9--(x16)--14--(x16)--11--(x16)--9--(x16)-------|
D|--11--------14---------13---------9--------------| X3
A|--9---------12---------11---------7--------------|
E|-------------------------------------------------|
   F#m7      Amaj       Abm7       Emaj




CHORUS 0:40
e|-------------------------------------|
B|-------------------------------------|
G|-------------------------------------|
D|---7-------4-------7-------4---------|
A|---7-(x16)-4-(x16)-7-(x16)-4-(x16)---|
E|---5-------2-------5-------2---------|...

0:52 the D and F# are the only powerchords
e|------------------------------------------|---------------------------------|
B|------------9--9-9-9--5--5-5-5----(elevens|------------9--9-9-9--2----------|
G|--7--7-7-7--9--9-9-9--6--6-6-6--11-111111-|--7--7-7-7--9--9-9-9--2----------|
D|--7--7-7-7--9--9-9-9--6--6-6-6--11-111111-|--7--7-7-7--9--9-9-9--2-(x16)----|
A|--5--5-5-5--7--7-7-7--4--4-4-4--9--9-9-9--|--5--5-5-5--7--7-7-7--0----------|
E|------------------------------------------|---------------------------------|...

1:03
e|------------------------------------------------------------------------------------------|
B|---------------9--9-9-9-9-9--5--5-5-5-5-5-----------------7--7-7-7-7-7--9--9-9-9-9-9------|
G|-7--7-7-7-7-7--9--9-9-9-9-9--6--6-6-6-6-6--11-1111111111--7--7-7-7-7-7--9--9-9-9-9-9------|
D|-7--7-7-7-7-7--9--9-9-9-9-9--6--6-6-6-6-6--11-1111111111--7--7-7-7-7-7--9--9-9-9-9-9------|
A|-5--5-5-5-5-5--7--7-7-7-7-7--4--4-4-4-4-4--9--9-9-9-9-9---5--5-5-5-5-5--7--7-7-7-7-7------|
E|------------------------------------------------------------------------------------------|


    _________________________
  | BACK TO INTRO/1ST VERSE!! |
  | __________________________|



VERSE 2 1:24 (REPEAT EACH CHORD PATTERN TWICE)
e|--9--9---9------X--X---X----11-11--11----X-X--X-----------|
B|--10-10--10----14-14--14----12-12--12----9-9--9-----------|
G|--9--9---9-----14-14--14----11-11--11----9-9--9-----------|
D|--11-11--11----14-14--14----13-13--13----9-9--9-----------|
A|--9--9---9-----12-12--12----11-11--11----7-7--7-----------|
E|----------------------------------------------------------|
[ Tab from: http://www.guitartabs.cc/tabs/g/green_day/lazy_bones_tab.html ]
1:36-1:46 
ONLY ONE STRUM + GTR 2 COMES IN
(REPEAT ONE STRUMS 4TIMES. 3 STRUM 2 TIMES.)
e|-----9------X-----11-11--11----X-X--X--------|
B|-----10----14-----12-12--12----9-9--9--------|
G|-----9-----14-----11-11--11----9-9--9--------|
D|-----11----14-----13-13--13----9-9--9--------|
A|-----9-----12-----11-11--11----7-7--7--------|
E|---------------------------------------------|
GUITAR 2 ARPEGIO PART (1:36 - 1:46)
e|--2~--2------5~-----------7~----------------9~---7-7-7-7-7-----|
B|--2~----2----5~-----------7~--------7-------9~---7-7-7-7-7-----|
G|--X-------2--X-----6------X~----------------X~---X-X-X-X-X-----|
D|--4~---------7~------7----9~--7-9-7----9-7--11~--9-9-9-9-9-----|
A|-----------------7---------------------------------------------|
E|---------------------------------------------------------------|


    _________________________
  | BACK TO CHORUS!!          |
  | __________________________|



    _________________________________________________________
  | BACK TO INTRO/1ST VERSE!! 2X (QUIETER FOR DISTANT EFFECT)|
  | SECOND TIME IS PLAYED WITH GTR 2 ARPEGIO PART            |
   __________________________________________________________




SOLO 2:44
(GUITAR 1 PLAYS NORMAL CHORUS SOON TO BE 
JOINED IN WITH GUITAR 2 AT 2:55 WITH VOCALS)
GTR 1
e|-------------------------------------|
B|-------------------------------------|
G|-------------------------------------|
D|---7-------4-------7-------4---------|
A|---7-(x16)-4-(x16)-7-(x16)-4-(x16)---|
E|---5-------2-------5-------2---------|
GTR 2
e|----------------------------------------------------------------------|
B|----------------------------------------------------------------------|
G|-9-9-9-9-9-9-9-9-9-9-9-9-11-11-11-11-6-6-6-6-6-6-6-6-6-6-6-6-6-6-6-6--|
D|----------------------------------------------------------------------|
A|----------------------------------------------------------------------|
E|----------------------------------------------------------------------|
CONTINUED                                                              ||
e|--------------------------------------------------------------------------------------|
B|--------------------------------------------------------------------------------------|
G|-9-9-9-9-9-9-9-9-9-9-9-9-14-14-14-14-11-11-11-11-11-11-11-11-11-11-11-11-11-11-11-11--|
D|--------------------------------------------------------------------------------------|
A|--------------------------------------------------------------------------------------|
E|--------------------------------------------------------------------------------------|


    ______________________________________
  | BACK TO CHORUS!! (2ND PART )          |
  | BUT DO NOT END ON THE 7999 CHORD..    |
  | AND CONTINUE ON WITH THE 5776 + 9111111
  | ______________________________________|



    __________________________________
  | BACK TO INTRO/1ST VERSE!!         |
  | AND END WITH ONE SINGLE F#m7 CHORD|
  _____________________________________

DONE!!!! CHEERS.
PLZ RATE AND COMMENT! :P 
UPDATED ON APPROVAL QUEUE)
Comments