Green Day - Last Ride In Chords & Tabs

 

Last Ride In Chords & Tabs

Green Day Chords & Tabs

Version: 4 Type: Bass Tab 0 ratings
1 star 2 stars 3 stars 4 stars 5 stars
comments

Last Ride In Bass Tab

G-----------------------I
D-----------------------I
A--2-----2--------------I
E-----2-----5--0--5-----I

G-----------------------I
D-----------------------I
A-----------------------I
E--0-0-0-0-0-0-0--2-----I
[ Tab from: http://www.guitartabs.cc/tabs/g/green_day/last_ride_in_btab_ver_4.html ]
G-----------------------I
D-----------------------I
A-----------------------I
E--0-0-0-0-0-0-0--2-----I

G-----------------------I
D-----------------------I
A--2-2------------------I
E------5-4-2------------I

G---------------------------------------------------I
D---------------------------------------------------I
A---------------------------------------------------I
E--0-0-0-0-0-0-0-0-0-0-0-0--2-2-2-2-2-2-2-2-2-2-2-2-I
Comments