Green Day - Last Ride In Chords & Tabs

 

Last Ride In Chords & Tabs

Green Day Chords & Tabs

Version: 3 Type: Bass Tab 0 ratings
1 star 2 stars 3 stars 4 stars 5 stars
comments

Last Ride In Bass Tab

Tabbed by "Adam Amann"

Intro:

E------2-|
A-2---2--|
D--4-2---|
G--------|(4x)

Verse:

E-0-2----------------2-|
A-------24------2---2--|
D----4-2--2-4----4-2---|
G------------4---------|
[ Tab from: http://www.guitartabs.cc/tabs/g/green_day/last_ride_in_btab_ver_3.html ]
E-0-2----------------2-|
A-------24------2---2--|
D----4-2--2-4----4-2---|
G------------4---------|

E-0-2----------------2-|
A-------24------2---2--|
D----4-2--2-4----4-2---|
G------------4---------|


This is it...real simple...I'm not 100% on this, i was just really bored and did it...please rate.
Comments